999
dxflib 3.17.0.0
  0
SECTION
  2
HEADER
  9
$ACADVER
  1
AC1015
  9
$HANDSEED
  5
FFFF
  9
$DIMADEC
 70
0
  9
$DIMASZ
 40
0.18
  9
$DIMAUNIT
 70
0
  9
$DIMAZIN
 70
0
  9
$DIMDEC
 70
4
  9
$DIMDSEP
 70
46
  9
$DIMEXE
 40
0.18
  9
$DIMEXO
 40
0.0625
  9
$DIMGAP
 40
0.09
  9
$DIMLUNIT
 70
2
  9
$DIMSCALE
 40
1.0
  9
$DIMTSZ
 40
0.0
  9
$DIMTXT
 40
0.18
  9
$DIMZIN
 70
0
  9
$DWGCODEPAGE
  3
ANSI_1252
  9
$INSUNITS
 70
0
  9
$LTSCALE
 40
1.0
  9
$MAXACTVP
 70
64
  9
$MEASUREMENT
 70
1
  9
$PDMODE
 70
0
  9
$PDSIZE
 40
0.0
  0
ENDSEC
  0
SECTION
  2
TABLES
  0
TABLE
  2
VPORT
  5
8
100
AcDbSymbolTable
 70
1
  0
VPORT
  5
30
100
AcDbSymbolTableRecord
100
AcDbViewportTableRecord
  2
*Active
 70
0
 10
0.0
 20
0.0
 11
1.0
 21
1.0
 12
286.3055555555554861
 22
148.5
 13
0.0
 23
0.0
 14
10.0
 24
10.0
 15
10.0
 25
10.0
 16
0.0
 26
0.0
 36
1.0
 17
0.0
 27
0.0
 37
0.0
 40
297.0
 41
1.92798353909465
 42
50.0
 43
0.0
 44
0.0
 50
0.0
 51
0.0
 71
0
 72
100
 73
1
 74
3
 75
1
 76
1
 77
0
 78
0
281
0
 65
1
110
0.0
120
0.0
130
0.0
111
1.0
121
0.0
131
0.0
112
0.0
122
1.0
132
0.0
 79
0
146
0.0
  0
ENDTAB
  0
TABLE
  2
LTYPE
  5
5
100
AcDbSymbolTable
 70
41
  0
LTYPE
  5
16
100
AcDbSymbolTableRecord
100
AcDbLinetypeTableRecord
  2
CONTINUOUS
 70
0
  3
Solid line
 72
65
 73
0
 40
0.0
  0
LTYPE
  5
31
100
AcDbSymbolTableRecord
100
AcDbLinetypeTableRecord
  2
ACAD_ISO11W100
 70
0
  3
ISO double-dash dot __ __ . __ __ . __ __ . __ _
 72
65
 73
6
 40
33.0
 49
12.0
 74
0
 49
-3.0
 74
0
 49
12.0
 74
0
 49
-2.9500000000000002
 74
0
 49
0.1
 74
0
 49
-2.9500000000000002
 74
0
  0
LTYPE
  5
32
100
AcDbSymbolTableRecord
100
AcDbLinetypeTableRecord
  2
ACAD_ISO06W100
 70
0
  3
ISO long-dash triple-dot ____ ... ____ ... ____
 72
65
 73
8
 40
36.0000000000000071
 49
24.0
 74
0
 49
-2.9500000000000002
 74
0
 49
0.1
 74
0
 49
-2.9000000000000004
 74
0
 49
0.1
 74
0
 49
-2.9000000000000004
 74
0
 49
0.1
 74
0
 49
-2.9500000000000002
 74
0
  0
LTYPE
  5
33
100
AcDbSymbolTableRecord
100
AcDbLinetypeTableRecord
  2
DASHEDX2
 70
0
  3
Dashed (2x) ____  ____  ____  ____  ____  ___
 72
65
 73
2
 40
38.0999999999999943
 49
25.3999999999999986
 74
0
 49
-12.6999999999999993
 74
0
  0
LTYPE
  5
34
100
AcDbSymbolTableRecord
100
AcDbLinetypeTableRecord
  2
PHANTOM2
 70
0
  3
Phantom (.5x) ___ _ _ ___ _ _ ___ _ _ ___ _ _
 72
65
 73
6
 40
31.7500000000000036
 49
15.875
 74
0
 49
-3.1749999999999998
 74
0
 49
3.1749999999999998
 74
0
 49
-3.1749999999999998
 74
0
 49
3.1749999999999998
 74
0
 49
-3.1749999999999998
 74
0
  0
LTYPE
  5
35
100
AcDbSymbolTableRecord
100
AcDbLinetypeTableRecord
  2
HIDDEN
 70
0
  3
Hidden __ __ __ __ __ __ __ __ __ __ __ __ __ __
 72
65
 73
2
 40
9.5249999999999986
 49
6.3499999999999996
 74
0
 49
-3.1749999999999998
 74
0
  0
LTYPE
  5
36
100
AcDbSymbolTableRecord
100
AcDbLinetypeTableRecord
  2
ACAD_ISO04W100
 70
0
  3
ISO long-dash dot ____ . ____ . ____ . ____ . _
 72
65
 73
4
 40
30.0
 49
24.0
 74
0
 49
-2.9500000000000002
 74
0
 49
0.1
 74
0
 49
-2.9500000000000002
 74
0
  0
LTYPE
  5
37
100
AcDbSymbolTableRecord
100
AcDbLinetypeTableRecord
  2
BORDER2
 70
0
  3
Border (.5x) __.__.__.__.__.__.__.__.__.__.__.
 72
65
 73
6
 40
22.2250000000000014
 49
6.3499999999999996
 74
0
 49
-3.1749999999999998
 74
0
 49
6.3499999999999996
 74
0
 49
-3.125
 74
0
 49
0.1
 74
0
 49
-3.125
 74
0
  0
LTYPE
  5
38
100
AcDbSymbolTableRecord
100
AcDbLinetypeTableRecord
  2
DIVIDE2
 70
0
  3
Divide (.5x) __..__..__..__..__..__..__..__.._
 72
65
 73
6
 40
15.8749999999999982
 49
6.3499999999999996
 74
0
 49
-3.125
 74
0
 49
0.1
 74
0
 49
-3.0750000000000002
 74
0
 49
0.1
 74
0
 49
-3.125
 74
0
  0
LTYPE
  5
39
100
AcDbSymbolTableRecord
100
AcDbLinetypeTableRecord
  2
ACAD_ISO13W100
 70
0
  3
ISO double-dash double-dot __ __ . . __ __ . . _
 72
65
 73
8
 40
36.0000000000000071
 49
12.0
 74
0
 49
-3.0
 74
0
 49
12.0
 74
0
 49
-2.9500000000000002
 74
0
 49
0.1
 74
0
 49
-2.9000000000000004
 74
0
 49
0.1
 74
0
 49
-2.9500000000000002
 74
0
  0
LTYPE
  5
3A
100
AcDbSymbolTableRecord
100
AcDbLinetypeTableRecord
  2
ACAD_ISO14W100
 70
0
  3
ISO dash triple-dot __ . . . __ . . . __ . . . _
 72
65
 73
8
 40
24.0000000000000036
 49
12.0
 74
0
 49
-2.9500000000000002
 74
0
 49
0.1
 74
0
 49
-2.9000000000000004
 74
0
 49
0.1
 74
0
 49
-2.9000000000000004
 74
0
 49
0.1
 74
0
 49
-2.9500000000000002
 74
0
  0
LTYPE
  5
3B
100
AcDbSymbolTableRecord
100
AcDbLinetypeTableRecord
  2
PHANTOM
 70
0
  3
Phantom ______  __  __  ______  __  __  ______ 
 72
65
 73
6
 40
63.5000000000000071
 49
31.75
 74
0
 49
-6.3499999999999996
 74
0
 49
6.3499999999999996
 74
0
 49
-6.3499999999999996
 74
0
 49
6.3499999999999996
 74
0
 49
-6.3499999999999996
 74
0
  0
LTYPE
  5
3C
100
AcDbSymbolTableRecord
100
AcDbLinetypeTableRecord
  2
CENTERX2
 70
0
  3
Center (2x) ________  __  ________  __  _____
 72
65
 73
4
 40
101.6000000000000085
 49
63.5
 74
0
 49
-12.6999999999999993
 74
0
 49
12.6999999999999993
 74
0
 49
-12.6999999999999993
 74
0
  0
LTYPE
  5
3D
100
AcDbSymbolTableRecord
100
AcDbLinetypeTableRecord
  2
DOT2
 70
0
  3
Dot (.5x) ........................................
 72
65
 73
2
 40
3.1749999999999998
 49
0.1
 74
0
 49
-3.0749999999999997
 74
0
  0
LTYPE
  5
3E
100
AcDbSymbolTableRecord
100
AcDbLinetypeTableRecord
  2
DASHED
 70
0
  3
Dashed __ __ __ __ __ __ __ __ __ __ __ __ __ _
 72
65
 73
2
 40
19.0499999999999972
 49
12.6999999999999993
 74
0
 49
-6.3499999999999996
 74
0
  0
LTYPE
  5
3F
100
AcDbSymbolTableRecord
100
AcDbLinetypeTableRecord
  2
ACAD_ISO05W100
 70
0
  3
ISO long-dash double-dot ____ .. ____ .. ____ . 
 72
65
 73
6
 40
33.0000000000000071
 49
24.0
 74
0
 49
-2.9500000000000002
 74
0
 49
0.1
 74
0
 49
-2.9000000000000004
 74
0
 49
0.1
 74
0
 49
-2.9500000000000002
 74
0
  0
LTYPE
  5
40
100
AcDbSymbolTableRecord
100
AcDbLinetypeTableRecord
  2
DASHDOTX2
 70
0
  3
Dash dot (2x) ____  .  ____  .  ____  .  ___
 72
65
 73
4
 40
50.7999999999999972
 49
25.3999999999999986
 74
0
 49
-12.6499999999999986
 74
0
 49
0.1
 74
0
 49
-12.6499999999999986
 74
0
  0
LTYPE
  5
41
100
AcDbSymbolTableRecord
100
AcDbLinetypeTableRecord
  2
BORDER
 70
0
  3
Border __ __ . __ __ . __ __ . __ __ . __ __ .
 72
65
 73
6
 40
44.4499999999999957
 49
12.6999999999999993
 74
0
 49
-6.3499999999999996
 74
0
 49
12.6999999999999993
 74
0
 49
-6.2999999999999998
 74
0
 49
0.1
 74
0
 49
-6.2999999999999998
 74
0
  0
LTYPE
  5
42
100
AcDbSymbolTableRecord
100
AcDbLinetypeTableRecord
  2
PHANTOMX2
 70
0
  3
Phantom (2x) ____________    ____    ____   _
 72
65
 73
6
 40
127.0000000000000142
 49
63.5
 74
0
 49
-12.6999999999999993
 74
0
 49
12.6999999999999993
 74
0
 49
-12.6999999999999993
 74
0
 49
12.6999999999999993
 74
0
 49
-12.6999999999999993
 74
0
  0
LTYPE
  5
43
100
AcDbSymbolTableRecord
100
AcDbLinetypeTableRecord
  2
DOTX2
 70
0
  3
Dot (2x) .  .  .  .  .  .  .  .  .  .  .  .  .  .
 72
65
 73
2
 40
12.6999999999999993
 49
0.1
 74
0
 49
-12.5999999999999996
 74
0
  0
LTYPE
  5
44
100
AcDbSymbolTableRecord
100
AcDbLinetypeTableRecord
  2
ACAD_ISO03W100
 70
0
  3
ISO dash space __    __    __    __    __    __
 72
65
 73
2
 40
30.0
 49
12.0
 74
0
 49
-18.0
 74
0
  0
LTYPE
  5
45
100
AcDbSymbolTableRecord
100
AcDbLinetypeTableRecord
  2
DIVIDE
 70
0
  3
Divide ____ . . ____ . . ____ . . ____ . . ____
 72
65
 73
6
 40
31.7500000000000036
 49
12.6999999999999993
 74
0
 49
-6.2999999999999998
 74
0
 49
0.1
 74
0
 49
-6.25
 74
0
 49
0.1
 74
0
 49
-6.2999999999999998
 74
0
  0
LTYPE
  5
46
100
AcDbSymbolTableRecord
100
AcDbLinetypeTableRecord
  2
DASHDOT2
 70
0
  3
Dash dot (.5x) _._._._._._._._._._._._._._._.
 72
65
 73
4
 40
12.6999999999999993
 49
6.3499999999999996
 74
0
 49
-3.125
 74
0
 49
0.1
 74
0
 49
-3.125
 74
0
  0
LTYPE
  5
47
100
AcDbSymbolTableRecord
100
AcDbLinetypeTableRecord
  2
ACAD_ISO09W100
 70
0
  3
ISO long-dash double-short-dash ____ __ __ ____
 72
65
 73
6
 40
45.0
 49
24.0
 74
0
 49
-3.0
 74
0
 49
6.0
 74
0
 49
-3.0
 74
0
 49
6.0
 74
0
 49
-3.0
 74
0
  0
LTYPE
  5
48
100
AcDbSymbolTableRecord
100
AcDbLinetypeTableRecord
  2
ACAD_ISO10W100
 70
0
  3
ISO dash dot __ . __ . __ . __ . __ . __ . __ . 
 72
65
 73
4
 40
18.0
 49
12.0
 74
0
 49
-2.9500000000000002
 74
0
 49
0.1
 74
0
 49
-2.9500000000000002
 74
0
  0
LTYPE
  5
49
100
AcDbSymbolTableRecord
100
AcDbLinetypeTableRecord
  2
CENTER2
 70
0
  3
Center (.5x) ___ _ ___ _ ___ _ ___ _ ___ _ ___
 72
65
 73
4
 40
28.5750000000000028
 49
19.0500000000000007
 74
0
 49
-3.1749999999999998
 74
0
 49
3.1749999999999998
 74
0
 49
-3.1749999999999998
 74
0
  0
LTYPE
  5
4A
100
AcDbSymbolTableRecord
100
AcDbLinetypeTableRecord
  2
HIDDENX2
 70
0
  3
Hidden (2x) ____ ____ ____ ____ ____ ____ ____ 
 72
65
 73
2
 40
19.0499999999999972
 49
12.6999999999999993
 74
0
 49
-6.3499999999999996
 74
0
  0
LTYPE
  5
14
100
AcDbSymbolTableRecord
100
AcDbLinetypeTableRecord
  2
BYBLOCK
 70
0
  3

 72
65
 73
0
 40
0.0
  0
LTYPE
  5
4B
100
AcDbSymbolTableRecord
100
AcDbLinetypeTableRecord
  2
ACAD_ISO12W100
 70
0
  3
ISO dash double-dot __ . . __ . . __ . . __ . . 
 72
65
 73
6
 40
21.0
 49
12.0
 74
0
 49
-2.9500000000000002
 74
0
 49
0.1
 74
0
 49
-2.9000000000000004
 74
0
 49
0.1
 74
0
 49
-2.9500000000000002
 74
0
  0
LTYPE
  5
4C
100
AcDbSymbolTableRecord
100
AcDbLinetypeTableRecord
  2
ACAD_ISO07W100
 70
0
  3
ISO dot . . . . . . . . . . . . . . . . . . . . 
 72
65
 73
2
 40
3.0
 49
0.1
 74
0
 49
-2.8999999999999999
 74
0
  0
LTYPE
  5
4D
100
AcDbSymbolTableRecord
100
AcDbLinetypeTableRecord
  2
BORDERX2
 70
0
  3
Border (2x) ____  ____  .  ____  ____  .  ___
 72
65
 73
6
 40
88.8999999999999773
 49
25.3999999999999986
 74
0
 49
-12.6999999999999993
 74
0
 49
25.3999999999999986
 74
0
 49
-12.6499999999999986
 74
0
 49
0.1
 74
0
 49
-12.6499999999999986
 74
0
  0
LTYPE
  5
4E
100
AcDbSymbolTableRecord
100
AcDbLinetypeTableRecord
  2
ACAD_ISO15W100
 70
0
  3
ISO double-dash triple-dot __ __ . . . __ __ . .
 72
65
 73
10
 40
39.0000000000000071
 49
12.0
 74
0
 49
-3.0
 74
0
 49
12.0
 74
0
 49
-2.9500000000000002
 74
0
 49
0.1
 74
0
 49
-2.9000000000000004
 74
0
 49
0.1
 74
0
 49
-2.9000000000000004
 74
0
 49
0.1
 74
0
 49
-2.9500000000000002
 74
0
  0
LTYPE
  5
4F
100
AcDbSymbolTableRecord
100
AcDbLinetypeTableRecord
  2
DASHDOT
 70
0
  3
Dash dot __ . __ . __ . __ . __ . __ . __ . __
 72
65
 73
4
 40
25.4000000000000021
 49
12.6999999999999993
 74
0
 49
-6.2999999999999998
 74
0
 49
0.1
 74
0
 49
-6.2999999999999998
 74
0
  0
LTYPE
  5
15
100
AcDbSymbolTableRecord
100
AcDbLinetypeTableRecord
  2
BYLAYER
 70
0
  3

 72
65
 73
0
 40
0.0
  0
LTYPE
  5
50
100
AcDbSymbolTableRecord
100
AcDbLinetypeTableRecord
  2
ACAD_ISO08W100
 70
0
  3
ISO long-dash short-dash ____ __ ____ __ ____ _
 72
65
 73
4
 40
36.0
 49
24.0
 74
0
 49
-3.0
 74
0
 49
6.0
 74
0
 49
-3.0
 74
0
  0
LTYPE
  5
51
100
AcDbSymbolTableRecord
100
AcDbLinetypeTableRecord
  2
CENTER
 70
0
  3
Center ____ _ ____ _ ____ _ ____ _ ____ _ ____
 72
65
 73
4
 40
50.8000000000000043
 49
31.75
 74
0
 49
-6.3499999999999996
 74
0
 49
6.3499999999999996
 74
0
 49
-6.3499999999999996
 74
0
  0
LTYPE
  5
52
100
AcDbSymbolTableRecord
100
AcDbLinetypeTableRecord
  2
ACAD_ISO02W100
 70
0
  3
ISO dash __ __ __ __ __ __ __ __ __ __ __ __ __
 72
65
 73
2
 40
15.0
 49
12.0
 74
0
 49
-3.0
 74
0
  0
LTYPE
  5
53
100
AcDbSymbolTableRecord
100
AcDbLinetypeTableRecord
  2
DIVIDEX2
 70
0
  3
Divide (2x) ________  .  .  ________  .  .  _
 72
65
 73
6
 40
63.5
 49
25.3999999999999986
 74
0
 49
-12.6499999999999986
 74
0
 49
0.1
 74
0
 49
-12.5999999999999979
 74
0
 49
0.1
 74
0
 49
-12.6499999999999986
 74
0
  0
LTYPE
  5
54
100
AcDbSymbolTableRecord
100
AcDbLinetypeTableRecord
  2
HIDDEN2
 70
0
  3
Hidden (.5x) _ _ _ _ _ _ _ _ _ _ _ _ _ _ _ _ _ 
 72
65
 73
2
 40
4.7624999999999993
 49
3.1749999999999998
 74
0
 49
-1.5874999999999999
 74
0
  0
LTYPE
  5
55
100
AcDbSymbolTableRecord
100
AcDbLinetypeTableRecord
  2
DOT
 70
0
  3
Dot . . . . . . . . . . . . . . . . . . . . . . . .
 72
65
 73
2
 40
6.3499999999999996
 49
0.1
 74
0
 49
-6.25
 74
0
  0
LTYPE
  5
56
100
AcDbSymbolTableRecord
100
AcDbLinetypeTableRecord
  2
DASHED2
 70
0
  3
Dashed (.5x) _ _ _ _ _ _ _ _ _ _ _ _ _ _ _ _ _ 
 72
65
 73
2
 40
9.5249999999999986
 49
6.3499999999999996
 74
0
 49
-3.1749999999999998
 74
0
  0
ENDTAB
  0
TABLE
  2
LAYER
  5
2
100
AcDbSymbolTable
 70
2
  0
LAYER
  5
57
100
AcDbSymbolTableRecord
100
AcDbLayerTableRecord
  2
construction
 70
0
 62
3
420
65280
  6
CONTINUOUS
370
25
390
F
  0
LAYER
  5
10
100
AcDbSymbolTableRecord
100
AcDbLayerTableRecord
  2
0
 70
0
 62
7
420
16777215
  6
CONTINUOUS
370
5
390
F
  0
ENDTAB
  0
TABLE
  2
STYLE
  5
3
100
AcDbSymbolTable
 70
1
  0
STYLE
  5
58
100
AcDbSymbolTableRecord
100
AcDbTextStyleTableRecord
  2
Standard
 70
0
 40
0.0
 41
1.0
 50
0.0
 71
0
 42
2.5
  3

  4

1001
ACAD
1000
txt
1071
0
  0
ENDTAB
  0
TABLE
  2
VIEW
  5
6
100
AcDbSymbolTable
 70
0
  0
ENDTAB
  0
TABLE
  2
UCS
  5
7
100
AcDbSymbolTable
 70
0
  0
ENDTAB
  0
TABLE
  2
APPID
  5
9
100
AcDbSymbolTable
 70
1
  0
APPID
  5
12
100
AcDbSymbolTableRecord
100
AcDbRegAppTableRecord
  2
ACAD
 70
0
  0
APPID
  5
59
100
AcDbSymbolTableRecord
100
AcDbRegAppTableRecord
  2
QCAD
 70
0
  0
ENDTAB
  0
TABLE
  2
DIMSTYLE
  5
A
100
AcDbSymbolTable
 70
1
100
AcDbDimStyleTable
 71
0
  0
DIMSTYLE
105
27
100
AcDbSymbolTableRecord
100
AcDbDimStyleTableRecord
  2
Standard
 41
0.18
 42
0.0625
 43
3.75
 44
0.18
 70
0
 73
0
 74
0
 77
1
 78
8
140
0.18
141
2.5
143
0.03937007874016
147
0.09
171
3
172
1
271
2
272
2
274
3
278
44
283
0
284
8
340
58
  0
ENDTAB
  0
TABLE
  2
BLOCK_RECORD
  5
1
100
AcDbSymbolTable
 70
1
  0
BLOCK_RECORD
  5
1F
100
AcDbSymbolTableRecord
100
AcDbBlockTableRecord
  2
*Model_Space
340
22
  0
BLOCK_RECORD
  5
1B
100
AcDbSymbolTableRecord
100
AcDbBlockTableRecord
  2
*Paper_Space
340
1E
  0
BLOCK_RECORD
  5
23
100
AcDbSymbolTableRecord
100
AcDbBlockTableRecord
  2
*Paper_Space0
340
26
  0
ENDTAB
  0
ENDSEC
  0
SECTION
  2
BLOCKS
  0
BLOCK
  5
20
100
AcDbEntity
  8
0
100
AcDbBlockBegin
  2
*Model_Space
 70
0
 10
0.0
 20
0.0
 30
0.0
  3
*Model_Space
  1

  0
ENDBLK
  5
21
100
AcDbEntity
  8
0
100
AcDbBlockEnd
  0
BLOCK
  5
1C
100
AcDbEntity
 67
1
  8
0
100
AcDbBlockBegin
  2
*Paper_Space
 70
0
 10
0.0
 20
0.0
 30
0.0
  3
*Paper_Space
  1

  0
ENDBLK
  5
1D
100
AcDbEntity
 67
1
  8
0
100
AcDbBlockEnd
  0
BLOCK
  5
24
100
AcDbEntity
  8
0
100
AcDbBlockBegin
  2
*Paper_Space0
 70
0
 10
0.0
 20
0.0
 30
0.0
  3
*Paper_Space0
  1

  0
ENDBLK
  5
25
100
AcDbEntity
  8
0
100
AcDbBlockEnd
  0
ENDSEC
  0
SECTION
  2
ENTITIES
  0
LINE
  5
5A
100
AcDbEntity
  8
0
 62
1
420
16711680
370
-1
 48
1.0
  6
BYLAYER
100
AcDbLine
 10
0.0
 20
313.1499999999999773
 30
0.0
 11
0.0
 21
266.8249999999999886
 31
0.0
  0
LINE
  5
5B
100
AcDbEntity
  8
0
 62
1
420
16711680
370
-1
 48
1.0
  6
BYLAYER
100
AcDbLine
 10
0.0
 20
266.8249999999999886
 30
0.0
 11
3.1499999999999999
 21
266.8249999999999886
 31
0.0
  0
LINE
  5
5C
100
AcDbEntity
  8
0
 62
1
420
16711680
370
-1
 48
1.0
  6
BYLAYER
100
AcDbLine
 10
3.1499999999999999
 20
266.8249999999999886
 30
0.0
 11
3.1499999999999999
 21
235.3249999999999886
 31
0.0
  0
LINE
  5
5D
100
AcDbEntity
  8
0
 62
1
420
16711680
370
-1
 48
1.0
  6
BYLAYER
100
AcDbLine
 10
3.1499999999999999
 20
235.3249999999999886
 30
0.0
 11
0.0
 21
235.3249999999999886
 31
0.0
  0
LINE
  5
5E
100
AcDbEntity
  8
0
 62
1
420
16711680
370
-1
 48
1.0
  6
BYLAYER
100
AcDbLine
 10
0.0
 20
235.3249999999999886
 30
0.0
 11
0.0
 21
203.8249999999999886
 31
0.0
  0
LINE
  5
5F
100
AcDbEntity
  8
0
 62
1
420
16711680
370
-1
 48
1.0
  6
BYLAYER
100
AcDbLine
 10
0.0
 20
203.8249999999999886
 30
0.0
 11
3.1499999999999999
 21
203.8249999999999886
 31
0.0
  0
LINE
  5
60
100
AcDbEntity
  8
0
 62
1
420
16711680
370
-1
 48
1.0
  6
BYLAYER
100
AcDbLine
 10
3.1499999999999999
 20
203.8249999999999886
 30
0.0
 11
3.1499999999999999
 21
172.3249999999999886
 31
0.0
  0
LINE
  5
61
100
AcDbEntity
  8
0
 62
1
420
16711680
370
-1
 48
1.0
  6
BYLAYER
100
AcDbLine
 10
3.1499999999999999
 20
172.3249999999999886
 30
0.0
 11
0.0
 21
172.3249999999999886
 31
0.0
  0
LINE
  5
62
100
AcDbEntity
  8
0
 62
1
420
16711680
370
-1
 48
1.0
  6
BYLAYER
100
AcDbLine
 10
0.0
 20
172.3249999999999886
 30
0.0
 11
0.0
 21
140.8249999999999886
 31
0.0
  0
LINE
  5
63
100
AcDbEntity
  8
0
 62
1
420
16711680
370
-1
 48
1.0
  6
BYLAYER
100
AcDbLine
 10
0.0
 20
140.8249999999999886
 30
0.0
 11
3.1499999999999999
 21
140.8249999999999886
 31
0.0
  0
LINE
  5
64
100
AcDbEntity
  8
0
 62
1
420
16711680
370
-1
 48
1.0
  6
BYLAYER
100
AcDbLine
 10
3.1499999999999999
 20
140.8249999999999886
 30
0.0
 11
3.1499999999999999
 21
109.3250000000000028
 31
0.0
  0
LINE
  5
65
100
AcDbEntity
  8
0
 62
1
420
16711680
370
-1
 48
1.0
  6
BYLAYER
100
AcDbLine
 10
3.1499999999999999
 20
109.3250000000000028
 30
0.0
 11
0.0
 21
109.3250000000000028
 31
0.0
  0
LINE
  5
66
100
AcDbEntity
  8
0
 62
1
420
16711680
370
-1
 48
1.0
  6
BYLAYER
100
AcDbLine
 10
0.0
 20
109.3250000000000028
 30
0.0
 11
0.0
 21
77.8250000000000028
 31
0.0
  0
LINE
  5
67
100
AcDbEntity
  8
0
 62
1
420
16711680
370
-1
 48
1.0
  6
BYLAYER
100
AcDbLine
 10
0.0
 20
77.8250000000000028
 30
0.0
 11
3.1499999999999999
 21
77.8250000000000028
 31
0.0
  0
LINE
  5
68
100
AcDbEntity
  8
0
 62
1
420
16711680
370
-1
 48
1.0
  6
BYLAYER
100
AcDbLine
 10
3.1499999999999999
 20
77.8250000000000028
 30
0.0
 11
3.1499999999999999
 21
46.3250000000000028
 31
0.0
  0
LINE
  5
69
100
AcDbEntity
  8
0
 62
1
420
16711680
370
-1
 48
1.0
  6
BYLAYER
100
AcDbLine
 10
3.1499999999999999
 20
46.3250000000000028
 30
0.0
 11
0.0
 21
46.3250000000000028
 31
0.0
  0
LINE
  5
6A
100
AcDbEntity
  8
0
 62
1
420
16711680
370
-1
 48
1.0
  6
BYLAYER
100
AcDbLine
 10
0.0
 20
46.3250000000000028
 30
0.0
 11
0.0
 21
14.8249999999999993
 31
0.0
  0
LINE
  5
6B
100
AcDbEntity
  8
0
 62
1
420
16711680
370
-1
 48
1.0
  6
BYLAYER
100
AcDbLine
 10
0.0
 20
14.8249999999999993
 30
0.0
 11
0.0
 21
0.0
 31
0.0
  0
LINE
  5
6C
100
AcDbEntity
  8
0
 62
1
420
16711680
370
-1
 48
1.0
  6
BYLAYER
100
AcDbLine
 10
0.0
 20
0.0
 30
0.0
 11
42.3999999999999986
 21
0.0
 31
0.0
  0
LINE
  5
6D
100
AcDbEntity
  8
0
 62
1
420
16711680
370
-1
 48
1.0
  6
BYLAYER
100
AcDbLine
 10
42.3999999999999986
 20
0.0
 30
0.0
 11
42.3999999999999986
 21
3.1499999999999999
 31
0.0
  0
LINE
  5
6E
100
AcDbEntity
  8
0
 62
1
420
16711680
370
-1
 48
1.0
  6
BYLAYER
100
AcDbLine
 10
42.3999999999999986
 20
3.1499999999999999
 30
0.0
 11
73.9000000000000057
 21
3.1499999999999999
 31
0.0
  0
LINE
  5
6F
100
AcDbEntity
  8
0
 62
1
420
16711680
370
-1
 48
1.0
  6
BYLAYER
100
AcDbLine
 10
73.9000000000000057
 20
3.1499999999999999
 30
0.0
 11
73.9000000000000057
 21
0.0
 31
0.0
  0
LINE
  5
70
100
AcDbEntity
  8
0
 62
1
420
16711680
370
-1
 48
1.0
  6
BYLAYER
100
AcDbLine
 10
73.9000000000000057
 20
0.0
 30
0.0
 11
105.4000000000000057
 21
0.0
 31
0.0
  0
LINE
  5
71
100
AcDbEntity
  8
0
 62
1
420
16711680
370
-1
 48
1.0
  6
BYLAYER
100
AcDbLine
 10
105.4000000000000057
 20
0.0
 30
0.0
 11
116.2999999999999972
 21
0.0
 31
0.0
  0
LINE
  5
72
100
AcDbEntity
  8
0
 62
1
420
16711680
370
-1
 48
1.0
  6
BYLAYER
100
AcDbLine
 10
116.2999999999999972
 20
0.0
 30
0.0
 11
116.2999999999999972
 21
46.3250000000000028
 31
0.0
  0
LINE
  5
73
100
AcDbEntity
  8
0
 62
1
420
16711680
370
-1
 48
1.0
  6
BYLAYER
100
AcDbLine
 10
116.2999999999999972
 20
46.3250000000000028
 30
0.0
 11
113.1500000000000057
 21
46.3250000000000028
 31
0.0
  0
LINE
  5
74
100
AcDbEntity
  8
0
 62
1
420
16711680
370
-1
 48
1.0
  6
BYLAYER
100
AcDbLine
 10
113.1500000000000057
 20
46.3250000000000028
 30
0.0
 11
113.1500000000000057
 21
77.8250000000000028
 31
0.0
  0
LINE
  5
75
100
AcDbEntity
  8
0
 62
1
420
16711680
370
-1
 48
1.0
  6
BYLAYER
100
AcDbLine
 10
113.1500000000000057
 20
77.8250000000000028
 30
0.0
 11
116.2999999999999972
 21
77.8250000000000028
 31
0.0
  0
LINE
  5
76
100
AcDbEntity
  8
0
 62
1
420
16711680
370
-1
 48
1.0
  6
BYLAYER
100
AcDbLine
 10
116.2999999999999972
 20
77.8250000000000028
 30
0.0
 11
116.2999999999999972
 21
109.3250000000000028
 31
0.0
  0
LINE
  5
77
100
AcDbEntity
  8
0
 62
1
420
16711680
370
-1
 48
1.0
  6
BYLAYER
100
AcDbLine
 10
116.2999999999999972
 20
109.3250000000000028
 30
0.0
 11
113.1500000000000057
 21
109.3250000000000028
 31
0.0
  0
LINE
  5
78
100
AcDbEntity
  8
0
 62
1
420
16711680
370
-1
 48
1.0
  6
BYLAYER
100
AcDbLine
 10
113.1500000000000057
 20
109.3250000000000028
 30
0.0
 11
113.1500000000000057
 21
140.8249999999999886
 31
0.0
  0
LINE
  5
79
100
AcDbEntity
  8
0
 62
1
420
16711680
370
-1
 48
1.0
  6
BYLAYER
100
AcDbLine
 10
113.1500000000000057
 20
140.8249999999999886
 30
0.0
 11
116.2999999999999972
 21
140.8249999999999886
 31
0.0
  0
LINE
  5
7A
100
AcDbEntity
  8
0
 62
1
420
16711680
370
-1
 48
1.0
  6
BYLAYER
100
AcDbLine
 10
116.2999999999999972
 20
140.8249999999999886
 30
0.0
 11
116.2999999999999972
 21
172.3249999999999886
 31
0.0
  0
LINE
  5
7B
100
AcDbEntity
  8
0
 62
1
420
16711680
370
-1
 48
1.0
  6
BYLAYER
100
AcDbLine
 10
116.2999999999999972
 20
172.3249999999999886
 30
0.0
 11
113.1500000000000057
 21
172.3249999999999886
 31
0.0
  0
LINE
  5
7C
100
AcDbEntity
  8
0
 62
1
420
16711680
370
-1
 48
1.0
  6
BYLAYER
100
AcDbLine
 10
113.1500000000000057
 20
172.3249999999999886
 30
0.0
 11
113.1500000000000057
 21
203.8249999999999886
 31
0.0
  0
LINE
  5
7D
100
AcDbEntity
  8
0
 62
1
420
16711680
370
-1
 48
1.0
  6
BYLAYER
100
AcDbLine
 10
113.1500000000000057
 20
203.8249999999999886
 30
0.0
 11
116.2999999999999972
 21
203.8249999999999886
 31
0.0
  0
LINE
  5
7E
100
AcDbEntity
  8
0
 62
1
420
16711680
370
-1
 48
1.0
  6
BYLAYER
100
AcDbLine
 10
116.2999999999999972
 20
203.8249999999999886
 30
0.0
 11
116.2999999999999972
 21
235.3249999999999886
 31
0.0
  0
LINE
  5
7F
100
AcDbEntity
  8
0
 62
1
420
16711680
370
-1
 48
1.0
  6
BYLAYER
100
AcDbLine
 10
116.2999999999999972
 20
235.3249999999999886
 30
0.0
 11
113.1500000000000057
 21
235.3249999999999886
 31
0.0
  0
LINE
  5
80
100
AcDbEntity
  8
0
 62
1
420
16711680
370
-1
 48
1.0
  6
BYLAYER
100
AcDbLine
 10
113.1500000000000057
 20
235.3249999999999886
 30
0.0
 11
113.1500000000000057
 21
266.8249999999999886
 31
0.0
  0
LINE
  5
81
100
AcDbEntity
  8
0
 62
1
420
16711680
370
-1
 48
1.0
  6
BYLAYER
100
AcDbLine
 10
113.1500000000000057
 20
266.8249999999999886
 30
0.0
 11
116.2999999999999972
 21
266.8249999999999886
 31
0.0
  0
LINE
  5
82
100
AcDbEntity
  8
0
 62
1
420
16711680
370
-1
 48
1.0
  6
BYLAYER
100
AcDbLine
 10
116.2999999999999972
 20
266.8249999999999886
 30
0.0
 11
116.2999999999999972
 21
298.3249999999999886
 31
0.0
  0
LINE
  5
83
100
AcDbEntity
  8
0
 62
1
420
16711680
370
-1
 48
1.0
  6
BYLAYER
100
AcDbLine
 10
116.2999999999999972
 20
298.3249999999999886
 30
0.0
 11
116.2999999999999972
 21
313.1499999999999773
 31
0.0
  0
LINE
  5
84
100
AcDbEntity
  8
0
 62
1
420
16711680
370
-1
 48
1.0
  6
BYLAYER
100
AcDbLine
 10
116.2999999999999972
 20
313.1499999999999773
 30
0.0
 11
0.0
 21
313.1499999999999773
 31
0.0
  0
LINE
  5
85
100
AcDbEntity
  8
0
 62
1
420
16711680
370
-1
 48
1.0
  6
BYLAYER
100
AcDbLine
 10
201.75
 20
73.1500000000000057
 30
0.0
 11
201.75
 21
53.8999999999999986
 31
0.0
  0
LINE
  5
86
100
AcDbEntity
  8
0
 62
1
420
16711680
370
-1
 48
1.0
  6
BYLAYER
100
AcDbLine
 10
201.75
 20
53.8999999999999986
 30
0.0
 11
198.5999999999999943
 21
53.8999999999999986
 31
0.0
  0
LINE
  5
87
100
AcDbEntity
  8
0
 62
1
420
16711680
370
-1
 48
1.0
  6
BYLAYER
100
AcDbLine
 10
198.5999999999999943
 20
53.8999999999999986
 30
0.0
 11
198.5999999999999943
 21
22.3999999999999986
 31
0.0
  0
LINE
  5
88
100
AcDbEntity
  8
0
 62
1
420
16711680
370
-1
 48
1.0
  6
BYLAYER
100
AcDbLine
 10
198.5999999999999943
 20
22.3999999999999986
 30
0.0
 11
201.75
 21
22.3999999999999986
 31
0.0
  0
LINE
  5
89
100
AcDbEntity
  8
0
 62
1
420
16711680
370
-1
 48
1.0
  6
BYLAYER
100
AcDbLine
 10
201.75
 20
22.3999999999999986
 30
0.0
 11
201.75
 21
3.1499999999999999
 31
0.0
  0
LINE
  5
8A
100
AcDbEntity
  8
0
 62
1
420
16711680
370
-1
 48
1.0
  6
BYLAYER
100
AcDbLine
 10
201.75
 20
3.1499999999999999
 30
0.0
 11
241.0
 21
3.1499999999999999
 31
0.0
  0
LINE
  5
8B
100
AcDbEntity
  8
0
 62
1
420
16711680
370
-1
 48
1.0
  6
BYLAYER
100
AcDbLine
 10
241.0
 20
3.1499999999999999
 30
0.0
 11
241.0
 21
0.0
 31
0.0
  0
LINE
  5
8C
100
AcDbEntity
  8
0
 62
1
420
16711680
370
-1
 48
1.0
  6
BYLAYER
100
AcDbLine
 10
241.0
 20
0.0
 30
0.0
 11
272.5
 21
0.0
 31
0.0
  0
LINE
  5
8D
100
AcDbEntity
  8
0
 62
1
420
16711680
370
-1
 48
1.0
  6
BYLAYER
100
AcDbLine
 10
272.5
 20
0.0
 30
0.0
 11
272.5
 21
3.1499999999999999
 31
0.0
  0
LINE
  5
8E
100
AcDbEntity
  8
0
 62
1
420
16711680
370
-1
 48
1.0
  6
BYLAYER
100
AcDbLine
 10
272.5
 20
3.1499999999999999
 30
0.0
 11
304.0
 21
3.1499999999999999
 31
0.0
  0
LINE
  5
8F
100
AcDbEntity
  8
0
 62
1
420
16711680
370
-1
 48
1.0
  6
BYLAYER
100
AcDbLine
 10
304.0
 20
3.1499999999999999
 30
0.0
 11
311.75
 21
3.1499999999999999
 31
0.0
  0
LINE
  5
90
100
AcDbEntity
  8
0
 62
1
420
16711680
370
-1
 48
1.0
  6
BYLAYER
100
AcDbLine
 10
311.75
 20
3.1499999999999999
 30
0.0
 11
311.75
 21
22.3999999999999986
 31
0.0
  0
LINE
  5
91
100
AcDbEntity
  8
0
 62
1
420
16711680
370
-1
 48
1.0
  6
BYLAYER
100
AcDbLine
 10
311.75
 20
22.3999999999999986
 30
0.0
 11
314.8999999999999773
 21
22.3999999999999986
 31
0.0
  0
LINE
  5
92
100
AcDbEntity
  8
0
 62
1
420
16711680
370
-1
 48
1.0
  6
BYLAYER
100
AcDbLine
 10
314.8999999999999773
 20
22.3999999999999986
 30
0.0
 11
314.8999999999999773
 21
53.8999999999999986
 31
0.0
  0
LINE
  5
93
100
AcDbEntity
  8
0
 62
1
420
16711680
370
-1
 48
1.0
  6
BYLAYER
100
AcDbLine
 10
314.8999999999999773
 20
53.8999999999999986
 30
0.0
 11
311.75
 21
53.8999999999999986
 31
0.0
  0
LINE
  5
94
100
AcDbEntity
  8
0
 62
1
420
16711680
370
-1
 48
1.0
  6
BYLAYER
100
AcDbLine
 10
311.75
 20
53.8999999999999986
 30
0.0
 11
311.75
 21
73.1500000000000057
 31
0.0
  0
LINE
  5
95
100
AcDbEntity
  8
0
 62
1
420
16711680
370
-1
 48
1.0
  6
BYLAYER
100
AcDbLine
 10
311.75
 20
73.1500000000000057
 30
0.0
 11
272.5
 21
73.1500000000000057
 31
0.0
  0
LINE
  5
96
100
AcDbEntity
  8
0
 62
1
420
16711680
370
-1
 48
1.0
  6
BYLAYER
100
AcDbLine
 10
272.5
 20
73.1500000000000057
 30
0.0
 11
272.5
 21
76.2999999999999972
 31
0.0
  0
LINE
  5
97
100
AcDbEntity
  8
0
 62
1
420
16711680
370
-1
 48
1.0
  6
BYLAYER
100
AcDbLine
 10
272.5
 20
76.2999999999999972
 30
0.0
 11
241.0
 21
76.2999999999999972
 31
0.0
  0
LINE
  5
98
100
AcDbEntity
  8
0
 62
1
420
16711680
370
-1
 48
1.0
  6
BYLAYER
100
AcDbLine
 10
241.0
 20
76.2999999999999972
 30
0.0
 11
241.0
 21
73.1500000000000057
 31
0.0
  0
LINE
  5
99
100
AcDbEntity
  8
0
 62
1
420
16711680
370
-1
 48
1.0
  6
BYLAYER
100
AcDbLine
 10
241.0
 20
73.1500000000000057
 30
0.0
 11
209.5
 21
73.1500000000000057
 31
0.0
  0
LINE
  5
9A
100
AcDbEntity
  8
0
 62
1
420
16711680
370
-1
 48
1.0
  6
BYLAYER
100
AcDbLine
 10
209.5
 20
73.1500000000000057
 30
0.0
 11
201.75
 21
73.1500000000000057
 31
0.0
  0
SPLINE
  5
9B
100
AcDbEntity
  8
0
 62
1
420
16711680
370
-1
 48
1.0
  6
BYLAYER
100
AcDbSpline
 70
8
 71
3
 72
8
 73
4
 74
0
 40
0.0
 40
0.0
 40
0.0
 40
0.0
 40
1.0
 40
1.0
 40
1.0
 40
1.0
 10
113.1500000000000057
 20
519.9750000000000227
 30
0.0
 10
113.1500000000000057
 20
519.9750000000000227
 30
0.0
 10
99.3096639999999979
 20
520.0555000000000518
 30
0.0
 10
88.149998999999994
 20
519.9750000000000227
 30
0.0
  0
SPLINE
  5
9C
100
AcDbEntity
  8
0
 62
1
420
16711680
370
-1
 48
1.0
  6
BYLAYER
100
AcDbSpline
 70
8
 71
3
 72
8
 73
4
 74
0
 40
0.0
 40
0.0
 40
0.0
 40
0.0
 40
1.0
 40
1.0
 40
1.0
 40
1.0
 10
88.149998999999994
 20
519.9750000000000227
 30
0.0
 10
76.9903340000000043
 20
519.8944999999999936
 30
0.0
 10
78.236266999999998
 20
425.4750000000000227
 30
0.0
 10
58.1499990000000011
 20
425.4750000000000227
 30
0.0
  0
SPLINE
  5
9D
100
AcDbEntity
  8
0
 62
1
420
16711680
370
-1
 48
1.0
  6
BYLAYER
100
AcDbSpline
 70
8
 71
3
 72
8
 73
4
 74
0
 40
0.0
 40
0.0
 40
0.0
 40
0.0
 40
1.0
 40
1.0
 40
1.0
 40
1.0
 10
58.1499990000000011
 20
425.4750000000000227
 30
0.0
 10
38.0637309999999971
 20
425.4750000000000227
 30
0.0
 10
39.7156850000000006
 20
519.9750000000000227
 30
0.0
 10
28.1500009999999996
 20
519.9750000000000227
 30
0.0
  0
SPLINE
  5
9E
100
AcDbEntity
  8
0
 62
1
420
16711680
370
-1
 48
1.0
  6
BYLAYER
100
AcDbSpline
 70
8
 71
3
 72
8
 73
4
 74
0
 40
0.0
 40
0.0
 40
0.0
 40
0.0
 40
1.0
 40
1.0
 40
1.0
 40
1.0
 10
28.1500009999999996
 20
519.9750000000000227
 30
0.0
 10
16.5843169999999986
 20
519.9750000000000227
 30
0.0
 10
3.1499999999999999
 20
519.9750000000000227
 30
0.0
 10
3.1499999999999999
 20
519.9750000000000227
 30
0.0
  0
LINE
  5
9F
100
AcDbEntity
  8
0
 62
1
420
16711680
370
-1
 48
1.0
  6
BYLAYER
100
AcDbLine
 10
3.1499999999999999
 20
519.9750000000000227
 30
0.0
 11
3.1499999999999999
 21
488.4750000000000227
 31
0.0
  0
LINE
  5
A0
100
AcDbEntity
  8
0
 62
1
420
16711680
370
-1
 48
1.0
  6
BYLAYER
100
AcDbLine
 10
3.1499999999999999
 20
488.4750000000000227
 30
0.0
 11
0.0
 21
488.4750000000000227
 31
0.0
  0
LINE
  5
A1
100
AcDbEntity
  8
0
 62
1
420
16711680
370
-1
 48
1.0
  6
BYLAYER
100
AcDbLine
 10
0.0
 20
488.4750000000000227
 30
0.0
 11
0.0
 21
456.9750000000000227
 31
0.0
  0
LINE
  5
A2
100
AcDbEntity
  8
0
 62
1
420
16711680
370
-1
 48
1.0
  6
BYLAYER
100
AcDbLine
 10
0.0
 20
456.9750000000000227
 30
0.0
 11
3.1499999999999999
 21
456.9750000000000227
 31
0.0
  0
LINE
  5
A3
100
AcDbEntity
  8
0
 62
1
420
16711680
370
-1
 48
1.0
  6
BYLAYER
100
AcDbLine
 10
3.1499999999999999
 20
456.9750000000000227
 30
0.0
 11
3.1499999999999999
 21
425.4750000000000227
 31
0.0
  0
LINE
  5
A4
100
AcDbEntity
  8
0
 62
1
420
16711680
370
-1
 48
1.0
  6
BYLAYER
100
AcDbLine
 10
3.1499999999999999
 20
425.4750000000000227
 30
0.0
 11
0.0
 21
425.4750000000000227
 31
0.0
  0
LINE
  5
A5
100
AcDbEntity
  8
0
 62
1
420
16711680
370
-1
 48
1.0
  6
BYLAYER
100
AcDbLine
 10
0.0
 20
425.4750000000000227
 30
0.0
 11
0.0
 21
393.9750000000000227
 31
0.0
  0
LINE
  5
A6
100
AcDbEntity
  8
0
 62
1
420
16711680
370
-1
 48
1.0
  6
BYLAYER
100
AcDbLine
 10
0.0
 20
393.9750000000000227
 30
0.0
 11
3.1499999999999999
 21
393.9750000000000227
 31
0.0
  0
LINE
  5
A7
100
AcDbEntity
  8
0
 62
1
420
16711680
370
-1
 48
1.0
  6
BYLAYER
100
AcDbLine
 10
3.1499999999999999
 20
393.9750000000000227
 30
0.0
 11
3.1499999999999999
 21
362.4750000000000227
 31
0.0
  0
LINE
  5
A8
100
AcDbEntity
  8
0
 62
1
420
16711680
370
-1
 48
1.0
  6
BYLAYER
100
AcDbLine
 10
3.1499999999999999
 20
362.4750000000000227
 30
0.0
 11
0.0
 21
362.4750000000000227
 31
0.0
  0
LINE
  5
A9
100
AcDbEntity
  8
0
 62
1
420
16711680
370
-1
 48
1.0
  6
BYLAYER
100
AcDbLine
 10
0.0
 20
362.4750000000000227
 30
0.0
 11
0.0
 21
330.9750000000000227
 31
0.0
  0
LINE
  5
AA
100
AcDbEntity
  8
0
 62
1
420
16711680
370
-1
 48
1.0
  6
BYLAYER
100
AcDbLine
 10
0.0
 20
330.9750000000000227
 30
0.0
 11
0.0
 21
316.1499999999999773
 31
0.0
  0
LINE
  5
AB
100
AcDbEntity
  8
0
 62
1
420
16711680
370
-1
 48
1.0
  6
BYLAYER
100
AcDbLine
 10
0.0
 20
316.1499999999999773
 30
0.0
 11
42.3999999999999986
 21
316.1499999999999773
 31
0.0
  0
LINE
  5
AC
100
AcDbEntity
  8
0
 62
1
420
16711680
370
-1
 48
1.0
  6
BYLAYER
100
AcDbLine
 10
42.3999999999999986
 20
316.1499999999999773
 30
0.0
 11
42.3999999999999986
 21
319.3000000000000114
 31
0.0
  0
LINE
  5
AD
100
AcDbEntity
  8
0
 62
1
420
16711680
370
-1
 48
1.0
  6
BYLAYER
100
AcDbLine
 10
42.3999999999999986
 20
319.3000000000000114
 30
0.0
 11
73.9000000000000057
 21
319.3000000000000114
 31
0.0
  0
LINE
  5
AE
100
AcDbEntity
  8
0
 62
1
420
16711680
370
-1
 48
1.0
  6
BYLAYER
100
AcDbLine
 10
73.9000000000000057
 20
319.3000000000000114
 30
0.0
 11
73.9000000000000057
 21
316.1499999999999773
 31
0.0
  0
LINE
  5
AF
100
AcDbEntity
  8
0
 62
1
420
16711680
370
-1
 48
1.0
  6
BYLAYER
100
AcDbLine
 10
73.9000000000000057
 20
316.1499999999999773
 30
0.0
 11
105.4000000000000057
 21
316.1499999999999773
 31
0.0
  0
LINE
  5
B0
100
AcDbEntity
  8
0
 62
1
420
16711680
370
-1
 48
1.0
  6
BYLAYER
100
AcDbLine
 10
105.4000000000000057
 20
316.1499999999999773
 30
0.0
 11
116.2999999999999972
 21
316.1499999999999773
 31
0.0
  0
LINE
  5
B1
100
AcDbEntity
  8
0
 62
1
420
16711680
370
-1
 48
1.0
  6
BYLAYER
100
AcDbLine
 10
116.2999999999999972
 20
316.1499999999999773
 30
0.0
 11
116.2999999999999972
 21
362.4750000000000227
 31
0.0
  0
LINE
  5
B2
100
AcDbEntity
  8
0
 62
1
420
16711680
370
-1
 48
1.0
  6
BYLAYER
100
AcDbLine
 10
116.2999999999999972
 20
362.4750000000000227
 30
0.0
 11
113.1500000000000057
 21
362.4750000000000227
 31
0.0
  0
LINE
  5
B3
100
AcDbEntity
  8
0
 62
1
420
16711680
370
-1
 48
1.0
  6
BYLAYER
100
AcDbLine
 10
113.1500000000000057
 20
362.4750000000000227
 30
0.0
 11
113.1500000000000057
 21
393.9750000000000227
 31
0.0
  0
LINE
  5
B4
100
AcDbEntity
  8
0
 62
1
420
16711680
370
-1
 48
1.0
  6
BYLAYER
100
AcDbLine
 10
113.1500000000000057
 20
393.9750000000000227
 30
0.0
 11
116.2999999999999972
 21
393.9750000000000227
 31
0.0
  0
LINE
  5
B5
100
AcDbEntity
  8
0
 62
1
420
16711680
370
-1
 48
1.0
  6
BYLAYER
100
AcDbLine
 10
116.2999999999999972
 20
393.9750000000000227
 30
0.0
 11
116.2999999999999972
 21
425.4750000000000227
 31
0.0
  0
LINE
  5
B6
100
AcDbEntity
  8
0
 62
1
420
16711680
370
-1
 48
1.0
  6
BYLAYER
100
AcDbLine
 10
116.2999999999999972
 20
425.4750000000000227
 30
0.0
 11
113.1500000000000057
 21
425.4750000000000227
 31
0.0
  0
LINE
  5
B7
100
AcDbEntity
  8
0
 62
1
420
16711680
370
-1
 48
1.0
  6
BYLAYER
100
AcDbLine
 10
113.1500000000000057
 20
425.4750000000000227
 30
0.0
 11
113.1500000000000057
 21
456.9750000000000227
 31
0.0
  0
LINE
  5
B8
100
AcDbEntity
  8
0
 62
1
420
16711680
370
-1
 48
1.0
  6
BYLAYER
100
AcDbLine
 10
113.1500000000000057
 20
456.9750000000000227
 30
0.0
 11
116.2999999999999972
 21
456.9750000000000227
 31
0.0
  0
LINE
  5
B9
100
AcDbEntity
  8
0
 62
1
420
16711680
370
-1
 48
1.0
  6
BYLAYER
100
AcDbLine
 10
116.2999999999999972
 20
456.9750000000000227
 30
0.0
 11
116.2999999999999972
 21
488.4750000000000227
 31
0.0
  0
LINE
  5
BA
100
AcDbEntity
  8
0
 62
1
420
16711680
370
-1
 48
1.0
  6
BYLAYER
100
AcDbLine
 10
116.2999999999999972
 20
488.4750000000000227
 30
0.0
 11
113.1500000000000057
 21
488.4750000000000227
 31
0.0
  0
LINE
  5
BB
100
AcDbEntity
  8
0
 62
1
420
16711680
370
-1
 48
1.0
  6
BYLAYER
100
AcDbLine
 10
113.1500000000000057
 20
488.4750000000000227
 30
0.0
 11
113.1500000000000057
 21
519.9750000000000227
 31
0.0
  0
SPLINE
  5
BC
100
AcDbEntity
  8
0
 62
1
420
16711680
370
-1
 48
1.0
  6
BYLAYER
100
AcDbSpline
 70
8
 71
3
 72
8
 73
4
 74
0
 40
0.0
 40
0.0
 40
0.0
 40
0.0
 40
1.0
 40
1.0
 40
1.0
 40
1.0
 10
171.6575799999999958
 20
589.8020930000000135
 30
0.0
 10
167.6257400000000075
 20
575.3030549999999721
 30
0.0
 10
163.9179699999999968
 20
560.7828309999999874
 30
0.0
 10
152.3252699999999891
 20
543.4712120000000368
 30
0.0
  0
SPLINE
  5
BD
100
AcDbEntity
  8
0
 62
1
420
16711680
370
-1
 48
1.0
  6
BYLAYER
100
AcDbSpline
 70
8
 71
3
 72
8
 73
4
 74
0
 40
0.0
 40
0.0
 40
0.0
 40
0.0
 40
1.0
 40
1.0
 40
1.0
 40
1.0
 10
152.3252699999999891
 20
543.4712120000000368
 30
0.0
 10
140.7325600000000065
 20
526.1595899999999801
 30
0.0
 10
122.4500000000000028
 20
519.9750000000000227
 30
0.0
 10
122.4500000000000028
 20
519.9750000000000227
 30
0.0
  0
LINE
  5
BE
100
AcDbEntity
  8
0
 62
1
420
16711680
370
-1
 48
1.0
  6
BYLAYER
100
AcDbLine
 10
122.4500000000000028
 20
519.9750000000000227
 30
0.0
 11
119.2999999999999972
 21
519.9750000000000227
 31
0.0
  0
LINE
  5
BF
100
AcDbEntity
  8
0
 62
1
420
16711680
370
-1
 48
1.0
  6
BYLAYER
100
AcDbLine
 10
119.2999999999999972
 20
519.9750000000000227
 30
0.0
 11
119.2999999999999972
 21
488.4750000000000227
 31
0.0
  0
LINE
  5
C0
100
AcDbEntity
  8
0
 62
1
420
16711680
370
-1
 48
1.0
  6
BYLAYER
100
AcDbLine
 10
119.2999999999999972
 20
488.4750000000000227
 30
0.0
 11
122.4500000000000028
 21
488.4750000000000227
 31
0.0
  0
LINE
  5
C1
100
AcDbEntity
  8
0
 62
1
420
16711680
370
-1
 48
1.0
  6
BYLAYER
100
AcDbLine
 10
122.4500000000000028
 20
488.4750000000000227
 30
0.0
 11
122.4500000000000028
 21
456.9750000000000227
 31
0.0
  0
LINE
  5
C2
100
AcDbEntity
  8
0
 62
1
420
16711680
370
-1
 48
1.0
  6
BYLAYER
100
AcDbLine
 10
122.4500000000000028
 20
456.9750000000000227
 30
0.0
 11
119.2999999999999972
 21
456.9750000000000227
 31
0.0
  0
LINE
  5
C3
100
AcDbEntity
  8
0
 62
1
420
16711680
370
-1
 48
1.0
  6
BYLAYER
100
AcDbLine
 10
119.2999999999999972
 20
456.9750000000000227
 30
0.0
 11
119.2999999999999972
 21
425.4750000000000227
 31
0.0
  0
LINE
  5
C4
100
AcDbEntity
  8
0
 62
1
420
16711680
370
-1
 48
1.0
  6
BYLAYER
100
AcDbLine
 10
119.2999999999999972
 20
425.4750000000000227
 30
0.0
 11
122.4500000000000028
 21
425.4750000000000227
 31
0.0
  0
LINE
  5
C5
100
AcDbEntity
  8
0
 62
1
420
16711680
370
-1
 48
1.0
  6
BYLAYER
100
AcDbLine
 10
122.4500000000000028
 20
425.4750000000000227
 30
0.0
 11
122.4500000000000028
 21
393.9750000000000227
 31
0.0
  0
LINE
  5
C6
100
AcDbEntity
  8
0
 62
1
420
16711680
370
-1
 48
1.0
  6
BYLAYER
100
AcDbLine
 10
122.4500000000000028
 20
393.9750000000000227
 30
0.0
 11
119.2999999999999972
 21
393.9750000000000227
 31
0.0
  0
LINE
  5
C7
100
AcDbEntity
  8
0
 62
1
420
16711680
370
-1
 48
1.0
  6
BYLAYER
100
AcDbLine
 10
119.2999999999999972
 20
393.9750000000000227
 30
0.0
 11
119.2999999999999972
 21
362.4750000000000227
 31
0.0
  0
LINE
  5
C8
100
AcDbEntity
  8
0
 62
1
420
16711680
370
-1
 48
1.0
  6
BYLAYER
100
AcDbLine
 10
119.2999999999999972
 20
362.4750000000000227
 30
0.0
 11
122.4500000000000028
 21
362.4750000000000227
 31
0.0
  0
LINE
  5
C9
100
AcDbEntity
  8
0
 62
1
420
16711680
370
-1
 48
1.0
  6
BYLAYER
100
AcDbLine
 10
122.4500000000000028
 20
362.4750000000000227
 30
0.0
 11
122.4500000000000028
 21
330.9750000000000227
 31
0.0
  0
LINE
  5
CA
100
AcDbEntity
  8
0
 62
1
420
16711680
370
-1
 48
1.0
  6
BYLAYER
100
AcDbLine
 10
122.4500000000000028
 20
330.9750000000000227
 30
0.0
 11
122.4500000000000028
 21
316.1499999999999773
 31
0.0
  0
LINE
  5
CB
100
AcDbEntity
  8
0
 62
1
420
16711680
370
-1
 48
1.0
  6
BYLAYER
100
AcDbLine
 10
122.4500000000000028
 20
316.1499999999999773
 30
0.0
 11
141.6999999999999886
 21
316.1499999999999773
 31
0.0
  0
LINE
  5
CC
100
AcDbEntity
  8
0
 62
1
420
16711680
370
-1
 48
1.0
  6
BYLAYER
100
AcDbLine
 10
141.6999999999999886
 20
316.1499999999999773
 30
0.0
 11
141.6999999999999886
 21
319.3000000000000114
 31
0.0
  0
LINE
  5
CD
100
AcDbEntity
  8
0
 62
1
420
16711680
370
-1
 48
1.0
  6
BYLAYER
100
AcDbLine
 10
141.6999999999999886
 20
319.3000000000000114
 30
0.0
 11
173.1999999999999886
 21
319.3000000000000114
 31
0.0
  0
LINE
  5
CE
100
AcDbEntity
  8
0
 62
1
420
16711680
370
-1
 48
1.0
  6
BYLAYER
100
AcDbLine
 10
173.1999999999999886
 20
319.3000000000000114
 30
0.0
 11
173.1999999999999886
 21
316.1499999999999773
 31
0.0
  0
LINE
  5
CF
100
AcDbEntity
  8
0
 62
1
420
16711680
370
-1
 48
1.0
  6
BYLAYER
100
AcDbLine
 10
173.1999999999999886
 20
316.1499999999999773
 30
0.0
 11
192.4499999999999886
 21
316.1499999999999773
 31
0.0
  0
LINE
  5
D0
100
AcDbEntity
  8
0
 62
1
420
16711680
370
-1
 48
1.0
  6
BYLAYER
100
AcDbLine
 10
192.4499999999999886
 20
316.1499999999999773
 30
0.0
 11
192.4499999999999886
 21
362.4750000000000227
 31
0.0
  0
LINE
  5
D1
100
AcDbEntity
  8
0
 62
1
420
16711680
370
-1
 48
1.0
  6
BYLAYER
100
AcDbLine
 10
192.4499999999999886
 20
362.4750000000000227
 30
0.0
 11
195.5999999999999943
 21
362.4750000000000227
 31
0.0
  0
LINE
  5
D2
100
AcDbEntity
  8
0
 62
1
420
16711680
370
-1
 48
1.0
  6
BYLAYER
100
AcDbLine
 10
195.5999999999999943
 20
362.4750000000000227
 30
0.0
 11
195.5999999999999943
 21
393.9750000000000227
 31
0.0
  0
LINE
  5
D3
100
AcDbEntity
  8
0
 62
1
420
16711680
370
-1
 48
1.0
  6
BYLAYER
100
AcDbLine
 10
195.5999999999999943
 20
393.9750000000000227
 30
0.0
 11
192.4499999999999886
 21
393.9750000000000227
 31
0.0
  0
LINE
  5
D4
100
AcDbEntity
  8
0
 62
1
420
16711680
370
-1
 48
1.0
  6
BYLAYER
100
AcDbLine
 10
192.4499999999999886
 20
393.9750000000000227
 30
0.0
 11
192.4499999999999886
 21
425.4750000000000227
 31
0.0
  0
LINE
  5
D5
100
AcDbEntity
  8
0
 62
1
420
16711680
370
-1
 48
1.0
  6
BYLAYER
100
AcDbLine
 10
192.4499999999999886
 20
425.4750000000000227
 30
0.0
 11
195.5999999999999943
 21
425.4750000000000227
 31
0.0
  0
LINE
  5
D6
100
AcDbEntity
  8
0
 62
1
420
16711680
370
-1
 48
1.0
  6
BYLAYER
100
AcDbLine
 10
195.5999999999999943
 20
425.4750000000000227
 30
0.0
 11
195.5999999999999943
 21
456.9750000000000227
 31
0.0
  0
LINE
  5
D7
100
AcDbEntity
  8
0
 62
1
420
16711680
370
-1
 48
1.0
  6
BYLAYER
100
AcDbLine
 10
195.5999999999999943
 20
456.9750000000000227
 30
0.0
 11
192.4499999999999886
 21
456.9750000000000227
 31
0.0
  0
LINE
  5
D8
100
AcDbEntity
  8
0
 62
1
420
16711680
370
-1
 48
1.0
  6
BYLAYER
100
AcDbLine
 10
192.4499999999999886
 20
456.9750000000000227
 30
0.0
 11
192.4499999999999886
 21
488.4750000000000227
 31
0.0
  0
LINE
  5
D9
100
AcDbEntity
  8
0
 62
1
420
16711680
370
-1
 48
1.0
  6
BYLAYER
100
AcDbLine
 10
192.4499999999999886
 20
488.4750000000000227
 30
0.0
 11
195.5999999999999943
 21
488.4750000000000227
 31
0.0
  0
LINE
  5
DA
100
AcDbEntity
  8
0
 62
1
420
16711680
370
-1
 48
1.0
  6
BYLAYER
100
AcDbLine
 10
195.5999999999999943
 20
488.4750000000000227
 30
0.0
 11
195.5999999999999943
 21
519.9750000000000227
 31
0.0
  0
LINE
  5
DB
100
AcDbEntity
  8
0
 62
1
420
16711680
370
-1
 48
1.0
  6
BYLAYER
100
AcDbLine
 10
195.5999999999999943
 20
519.9750000000000227
 30
0.0
 11
192.4499999999999886
 21
519.9750000000000227
 31
0.0
  0
LINE
  5
DC
100
AcDbEntity
  8
0
 62
1
420
16711680
370
-1
 48
1.0
  6
BYLAYER
100
AcDbLine
 10
192.4499999999999886
 20
519.9750000000000227
 30
0.0
 11
192.4499999999999886
 21
551.4750000000000227
 31
0.0
  0
LINE
  5
DD
100
AcDbEntity
  8
0
 62
1
420
16711680
370
-1
 48
1.0
  6
BYLAYER
100
AcDbLine
 10
192.4499999999999886
 20
551.4750000000000227
 30
0.0
 11
195.5999999999999943
 21
551.4750000000000227
 31
0.0
  0
LINE
  5
DE
100
AcDbEntity
  8
0
 62
1
420
16711680
370
-1
 48
1.0
  6
BYLAYER
100
AcDbLine
 10
195.5999999999999943
 20
551.4750000000000227
 30
0.0
 11
195.5999999999999943
 21
582.9750000000000227
 31
0.0
  0
LINE
  5
DF
100
AcDbEntity
  8
0
 62
1
420
16711680
370
-1
 48
1.0
  6
BYLAYER
100
AcDbLine
 10
195.5999999999999943
 20
582.9750000000000227
 30
0.0
 11
192.4499999999999886
 21
582.9750000000000227
 31
0.0
  0
LINE
  5
E0
100
AcDbEntity
  8
0
 62
1
420
16711680
370
-1
 48
1.0
  6
BYLAYER
100
AcDbLine
 10
192.4499999999999886
 20
582.9750000000000227
 30
0.0
 11
192.4499999999999886
 21
614.4750000000000227
 31
0.0
  0
LINE
  5
E1
100
AcDbEntity
  8
0
 62
1
420
16711680
370
-1
 48
1.0
  6
BYLAYER
100
AcDbLine
 10
192.4499999999999886
 20
614.4750000000000227
 30
0.0
 11
192.4499999999999886
 21
629.2999999999999545
 31
0.0
  0
LINE
  5
E2
100
AcDbEntity
  8
0
 62
1
420
16711680
370
-1
 48
1.0
  6
BYLAYER
100
AcDbLine
 10
192.4499999999999886
 20
629.2999999999999545
 30
0.0
 11
175.3666699999999992
 21
629.2999999999999545
 31
0.0
  0
SPLINE
  5
E3
100
AcDbEntity
  8
0
 62
1
420
16711680
370
-1
 48
1.0
  6
BYLAYER
100
AcDbSpline
 70
8
 71
3
 72
8
 73
4
 74
0
 40
0.0
 40
0.0
 40
0.0
 40
0.0
 40
1.0
 40
1.0
 40
1.0
 40
1.0
 10
175.3666699999999992
 20
629.2999999999999545
 30
0.0
 10
175.3666699999999992
 20
629.2999999999999545
 30
0.0
 10
175.6894200000000126
 20
604.3011310000000549
 30
0.0
 10
171.6575799999999958
 20
589.8020930000000135
 30
0.0
  0
LINE
  5
E4
100
AcDbEntity
  8
0
 62
1
420
16711680
370
-1
 48
1.0
  6
BYLAYER
100
AcDbLine
 10
171.6575799999999958
 20
589.8020930000000135
 30
0.0
 11
171.6575799999999958
 21
589.8020930000000135
 31
0.0
  0
SPLINE
  5
E5
100
AcDbEntity
  8
0
 62
1
420
16711680
370
-1
 48
1.0
  6
BYLAYER
100
AcDbSpline
 70
8
 71
3
 72
8
 73
4
 74
0
 40
0.0
 40
0.0
 40
0.0
 40
0.0
 40
1.0
 40
1.0
 40
1.0
 40
1.0
 10
143.2424200000000098
 20
273.552819999999997
 30
0.0
 10
147.2742599999999982
 20
259.0537699999999859
 30
0.0
 10
150.9820300000000088
 20
244.5335399999999879
 30
0.0
 10
162.5747299999999882
 20
227.2219100000000083
 30
0.0
  0
SPLINE
  5
E6
100
AcDbEntity
  8
0
 62
1
420
16711680
370
-1
 48
1.0
  6
BYLAYER
100
AcDbSpline
 70
8
 71
3
 72
8
 73
4
 74
0
 40
0.0
 40
0.0
 40
0.0
 40
0.0
 40
1.0
 40
1.0
 40
1.0
 40
1.0
 10
162.5747299999999882
 20
227.2219100000000083
 30
0.0
 10
174.1674399999999991
 20
209.9102800000000002
 30
0.0
 10
192.4499999999999886
 20
203.725689999999986
 30
0.0
 10
192.4499999999999886
 20
203.725689999999986
 30
0.0
  0
LINE
  5
E7
100
AcDbEntity
  8
0
 62
1
420
16711680
370
-1
 48
1.0
  6
BYLAYER
100
AcDbLine
 10
192.4499999999999886
 20
203.725689999999986
 30
0.0
 11
195.5999999999999943
 21
203.725689999999986
 31
0.0
  0
LINE
  5
E8
100
AcDbEntity
  8
0
 62
1
420
16711680
370
-1
 48
1.0
  6
BYLAYER
100
AcDbLine
 10
195.5999999999999943
 20
203.725689999999986
 30
0.0
 11
195.5999999999999943
 21
172.225689999999986
 31
0.0
  0
LINE
  5
E9
100
AcDbEntity
  8
0
 62
1
420
16711680
370
-1
 48
1.0
  6
BYLAYER
100
AcDbLine
 10
195.5999999999999943
 20
172.225689999999986
 30
0.0
 11
192.4499999999999886
 21
172.225689999999986
 31
0.0
  0
LINE
  5
EA
100
AcDbEntity
  8
0
 62
1
420
16711680
370
-1
 48
1.0
  6
BYLAYER
100
AcDbLine
 10
192.4499999999999886
 20
172.225689999999986
 30
0.0
 11
192.4499999999999886
 21
140.725689999999986
 31
0.0
  0
LINE
  5
EB
100
AcDbEntity
  8
0
 62
1
420
16711680
370
-1
 48
1.0
  6
BYLAYER
100
AcDbLine
 10
192.4499999999999886
 20
140.725689999999986
 30
0.0
 11
195.5999999999999943
 21
140.725689999999986
 31
0.0
  0
LINE
  5
EC
100
AcDbEntity
  8
0
 62
1
420
16711680
370
-1
 48
1.0
  6
BYLAYER
100
AcDbLine
 10
195.5999999999999943
 20
140.725689999999986
 30
0.0
 11
195.5999999999999943
 21
109.2256900000000002
 31
0.0
  0
LINE
  5
ED
100
AcDbEntity
  8
0
 62
1
420
16711680
370
-1
 48
1.0
  6
BYLAYER
100
AcDbLine
 10
195.5999999999999943
 20
109.2256900000000002
 30
0.0
 11
192.4499999999999886
 21
109.2256900000000002
 31
0.0
  0
LINE
  5
EE
100
AcDbEntity
  8
0
 62
1
420
16711680
370
-1
 48
1.0
  6
BYLAYER
100
AcDbLine
 10
192.4499999999999886
 20
109.2256900000000002
 30
0.0
 11
192.4499999999999886
 21
77.7256900000000002
 31
0.0
  0
LINE
  5
EF
100
AcDbEntity
  8
0
 62
1
420
16711680
370
-1
 48
1.0
  6
BYLAYER
100
AcDbLine
 10
192.4499999999999886
 20
77.7256900000000002
 30
0.0
 11
195.5999999999999943
 21
77.7256900000000002
 31
0.0
  0
LINE
  5
F0
100
AcDbEntity
  8
0
 62
1
420
16711680
370
-1
 48
1.0
  6
BYLAYER
100
AcDbLine
 10
195.5999999999999943
 20
77.7256900000000002
 30
0.0
 11
195.5999999999999943
 21
46.2256900000000002
 31
0.0
  0
LINE
  5
F1
100
AcDbEntity
  8
0
 62
1
420
16711680
370
-1
 48
1.0
  6
BYLAYER
100
AcDbLine
 10
195.5999999999999943
 20
46.2256900000000002
 30
0.0
 11
192.4499999999999886
 21
46.2256900000000002
 31
0.0
  0
LINE
  5
F2
100
AcDbEntity
  8
0
 62
1
420
16711680
370
-1
 48
1.0
  6
BYLAYER
100
AcDbLine
 10
192.4499999999999886
 20
46.2256900000000002
 30
0.0
 11
192.4499999999999886
 21
14.7256900000000002
 31
0.0
  0
LINE
  5
F3
100
AcDbEntity
  8
0
 62
1
420
16711680
370
-1
 48
1.0
  6
BYLAYER
100
AcDbLine
 10
192.4499999999999886
 20
14.7256900000000002
 30
0.0
 11
192.4499999999999886
 21
-0.09931
 31
0.0
  0
LINE
  5
F4
100
AcDbEntity
  8
0
 62
1
420
16711680
370
-1
 48
1.0
  6
BYLAYER
100
AcDbLine
 10
192.4499999999999886
 20
-0.09931
 30
0.0
 11
173.1999999999999886
 21
-0.09931
 31
0.0
  0
LINE
  5
F5
100
AcDbEntity
  8
0
 62
1
420
16711680
370
-1
 48
1.0
  6
BYLAYER
100
AcDbLine
 10
173.1999999999999886
 20
-0.09931
 30
0.0
 11
173.1999999999999886
 21
3.0506899999999999
 31
0.0
  0
LINE
  5
F6
100
AcDbEntity
  8
0
 62
1
420
16711680
370
-1
 48
1.0
  6
BYLAYER
100
AcDbLine
 10
173.1999999999999886
 20
3.0506899999999999
 30
0.0
 11
141.6999999999999886
 21
3.0506899999999999
 31
0.0
  0
LINE
  5
F7
100
AcDbEntity
  8
0
 62
1
420
16711680
370
-1
 48
1.0
  6
BYLAYER
100
AcDbLine
 10
141.6999999999999886
 20
3.0506899999999999
 30
0.0
 11
141.6999999999999886
 21
-0.09931
 31
0.0
  0
LINE
  5
F8
100
AcDbEntity
  8
0
 62
1
420
16711680
370
-1
 48
1.0
  6
BYLAYER
100
AcDbLine
 10
141.6999999999999886
 20
-0.09931
 30
0.0
 11
122.4500000000000028
 21
-0.09931
 31
0.0
  0
LINE
  5
F9
100
AcDbEntity
  8
0
 62
1
420
16711680
370
-1
 48
1.0
  6
BYLAYER
100
AcDbLine
 10
122.4500000000000028
 20
-0.09931
 30
0.0
 11
122.4500000000000028
 21
46.2256900000000002
 31
0.0
  0
LINE
  5
FA
100
AcDbEntity
  8
0
 62
1
420
16711680
370
-1
 48
1.0
  6
BYLAYER
100
AcDbLine
 10
122.4500000000000028
 20
46.2256900000000002
 30
0.0
 11
119.2999999999999972
 21
46.2256900000000002
 31
0.0
  0
LINE
  5
FB
100
AcDbEntity
  8
0
 62
1
420
16711680
370
-1
 48
1.0
  6
BYLAYER
100
AcDbLine
 10
119.2999999999999972
 20
46.2256900000000002
 30
0.0
 11
119.2999999999999972
 21
77.7256900000000002
 31
0.0
  0
LINE
  5
FC
100
AcDbEntity
  8
0
 62
1
420
16711680
370
-1
 48
1.0
  6
BYLAYER
100
AcDbLine
 10
119.2999999999999972
 20
77.7256900000000002
 30
0.0
 11
122.4500000000000028
 21
77.7256900000000002
 31
0.0
  0
LINE
  5
FD
100
AcDbEntity
  8
0
 62
1
420
16711680
370
-1
 48
1.0
  6
BYLAYER
100
AcDbLine
 10
122.4500000000000028
 20
77.7256900000000002
 30
0.0
 11
122.4500000000000028
 21
109.2256900000000002
 31
0.0
  0
LINE
  5
FE
100
AcDbEntity
  8
0
 62
1
420
16711680
370
-1
 48
1.0
  6
BYLAYER
100
AcDbLine
 10
122.4500000000000028
 20
109.2256900000000002
 30
0.0
 11
119.2999999999999972
 21
109.2256900000000002
 31
0.0
  0
LINE
  5
FF
100
AcDbEntity
  8
0
 62
1
420
16711680
370
-1
 48
1.0
  6
BYLAYER
100
AcDbLine
 10
119.2999999999999972
 20
109.2256900000000002
 30
0.0
 11
119.2999999999999972
 21
140.725689999999986
 31
0.0
  0
LINE
  5
100
100
AcDbEntity
  8
0
 62
1
420
16711680
370
-1
 48
1.0
  6
BYLAYER
100
AcDbLine
 10
119.2999999999999972
 20
140.725689999999986
 30
0.0
 11
122.4500000000000028
 21
140.725689999999986
 31
0.0
  0
LINE
  5
101
100
AcDbEntity
  8
0
 62
1
420
16711680
370
-1
 48
1.0
  6
BYLAYER
100
AcDbLine
 10
122.4500000000000028
 20
140.725689999999986
 30
0.0
 11
122.4500000000000028
 21
172.225689999999986
 31
0.0
  0
LINE
  5
102
100
AcDbEntity
  8
0
 62
1
420
16711680
370
-1
 48
1.0
  6
BYLAYER
100
AcDbLine
 10
122.4500000000000028
 20
172.225689999999986
 30
0.0
 11
119.2999999999999972
 21
172.225689999999986
 31
0.0
  0
LINE
  5
103
100
AcDbEntity
  8
0
 62
1
420
16711680
370
-1
 48
1.0
  6
BYLAYER
100
AcDbLine
 10
119.2999999999999972
 20
172.225689999999986
 30
0.0
 11
119.2999999999999972
 21
203.725689999999986
 31
0.0
  0
LINE
  5
104
100
AcDbEntity
  8
0
 62
1
420
16711680
370
-1
 48
1.0
  6
BYLAYER
100
AcDbLine
 10
119.2999999999999972
 20
203.725689999999986
 30
0.0
 11
122.4500000000000028
 21
203.725689999999986
 31
0.0
  0
LINE
  5
105
100
AcDbEntity
  8
0
 62
1
420
16711680
370
-1
 48
1.0
  6
BYLAYER
100
AcDbLine
 10
122.4500000000000028
 20
203.725689999999986
 30
0.0
 11
122.4500000000000028
 21
235.2257099999999923
 31
0.0
  0
LINE
  5
106
100
AcDbEntity
  8
0
 62
1
420
16711680
370
-1
 48
1.0
  6
BYLAYER
100
AcDbLine
 10
122.4500000000000028
 20
235.2257099999999923
 30
0.0
 11
119.2999999999999972
 21
235.2257099999999923
 31
0.0
  0
LINE
  5
107
100
AcDbEntity
  8
0
 62
1
420
16711680
370
-1
 48
1.0
  6
BYLAYER
100
AcDbLine
 10
119.2999999999999972
 20
235.2257099999999923
 30
0.0
 11
119.2999999999999972
 21
266.7257200000000239
 31
0.0
  0
LINE
  5
108
100
AcDbEntity
  8
0
 62
1
420
16711680
370
-1
 48
1.0
  6
BYLAYER
100
AcDbLine
 10
119.2999999999999972
 20
266.7257200000000239
 30
0.0
 11
122.4500000000000028
 21
266.7257200000000239
 31
0.0
  0
LINE
  5
109
100
AcDbEntity
  8
0
 62
1
420
16711680
370
-1
 48
1.0
  6
BYLAYER
100
AcDbLine
 10
122.4500000000000028
 20
266.7257200000000239
 30
0.0
 11
122.4500000000000028
 21
298.2257399999999734
 31
0.0
  0
LINE
  5
10A
100
AcDbEntity
  8
0
 62
1
420
16711680
370
-1
 48
1.0
  6
BYLAYER
100
AcDbLine
 10
122.4500000000000028
 20
298.2257399999999734
 30
0.0
 11
122.4500000000000028
 21
313.0507499999999936
 31
0.0
  0
LINE
  5
10B
100
AcDbEntity
  8
0
 62
1
420
16711680
370
-1
 48
1.0
  6
BYLAYER
100
AcDbLine
 10
122.4500000000000028
 20
313.0507499999999936
 30
0.0
 11
139.5333300000000065
 21
313.0507499999999936
 31
0.0
  0
SPLINE
  5
10C
100
AcDbEntity
  8
0
 62
1
420
16711680
370
-1
 48
1.0
  6
BYLAYER
100
AcDbSpline
 70
8
 71
3
 72
8
 73
4
 74
0
 40
0.0
 40
0.0
 40
0.0
 40
0.0
 40
1.0
 40
1.0
 40
1.0
 40
1.0
 10
139.5333300000000065
 20
313.0507499999999936
 30
0.0
 10
139.5333300000000065
 20
313.0507499999999936
 30
0.0
 10
139.2105799999999931
 20
288.0518700000000081
 30
0.0
 10
143.2424200000000098
 20
273.552819999999997
 30
0.0
  0
LINE
  5
10D
100
AcDbEntity
  8
0
 62
1
420
16711680
370
-1
 48
1.0
  6
BYLAYER
100
AcDbLine
 10
143.2424200000000098
 20
273.552819999999997
 30
0.0
 11
143.2424200000000098
 21
273.552819999999997
 31
0.0
  0
LINE
  5
10E
100
AcDbEntity
  8
0
 62
256
370
-1
 48
1.0
  6
BYLAYER
100
AcDbLine
 10
-188.9568292677595025
 20
215.3905810914645258
 30
0.0
 11
-186.0466087403489439
 21
216.5960339034145647
 31
0.0
  0
LINE
  5
10F
100
AcDbEntity
  8
0
 62
256
370
-1
 48
1.0
  6
BYLAYER
100
AcDbLine
 10
84.8625000000000256
 20
199.9999999999999716
 30
0.0
 11
88.0125000000000028
 21
199.9999999999999716
 31
0.0
  0
LINE
  5
110
100
AcDbEntity
  8
0
 62
256
370
-1
 48
1.0
  6
BYLAYER
100
AcDbLine
 10
28.2875000000000369
 20
199.9999999999999716
 30
0.0
 11
31.4375000000000142
 21
199.9999999999999716
 31
0.0
  0
LINE
  5
111
100
AcDbEntity
  8
0
 62
256
370
-1
 48
1.0
  6
BYLAYER
100
AcDbLine
 10
-181.3031606204577031
 20
196.9129904412388044
 30
0.0
 11
-178.3929400930471445
 21
198.1184432531888433
 31
0.0
  0
LINE
  5
112
100
AcDbEntity
  8
0
 62
256
370
-1
 48
1.0
  6
BYLAYER
100
AcDbLine
 10
84.8625000000000256
 20
180.0
 30
0.0
 11
88.0125000000000028
 21
180.0
 31
0.0
  0
LINE
  5
113
100
AcDbEntity
  8
0
 62
256
370
-1
 48
1.0
  6
BYLAYER
100
AcDbLine
 10
28.2875000000000369
 20
180.0
 30
0.0
 11
31.4375000000000142
 21
180.0
 31
0.0
  0
LINE
  5
114
100
AcDbEntity
  8
0
 62
256
370
-1
 48
1.0
  6
BYLAYER
100
AcDbLine
 10
-150.6884860312505054
 20
123.0026278403358617
 30
0.0
 11
-147.7782655038399753
 21
124.2080806522858722
 31
0.0
  0
LINE
  5
115
100
AcDbEntity
  8
0
 62
256
370
-1
 48
1.0
  6
BYLAYER
100
AcDbLine
 10
84.8625000000000256
 20
99.9999999999999716
 30
0.0
 11
88.0125000000000028
 21
99.9999999999999716
 31
0.0
  0
LINE
  5
116
100
AcDbEntity
  8
0
 62
256
370
-1
 48
1.0
  6
BYLAYER
100
AcDbLine
 10
28.2875000000000369
 20
99.9999999999999716
 30
0.0
 11
31.4375000000000142
 21
99.9999999999999716
 31
0.0
  0
LINE
  5
117
100
AcDbEntity
  8
0
 62
256
370
-1
 48
1.0
  6
BYLAYER
100
AcDbLine
 10
-143.0348173839487345
 20
104.5250371901101545
 30
0.0
 11
-140.1245968565381759
 21
105.730490002060165
 31
0.0
  0
LINE
  5
118
100
AcDbEntity
  8
0
 62
256
370
-1
 48
1.0
  6
BYLAYER
100
AcDbLine
 10
84.8625000000000256
 20
80.0
 30
0.0
 11
88.0125000000000028
 21
80.0
 31
0.0
  0
LINE
  5
119
100
AcDbEntity
  8
0
 62
256
370
-1
 48
1.0
  6
BYLAYER
100
AcDbLine
 10
28.2875000000000369
 20
80.0
 30
0.0
 11
31.4375000000000142
 21
80.0
 31
0.0
  0
LINE
  5
11A
100
AcDbEntity
  8
0
 62
256
370
-1
 48
1.0
  6
BYLAYER
100
AcDbLine
 10
-178.3929400930471445
 20
198.1184432531888433
 30
0.0
 11
-186.0466087403489439
 21
216.5960339034145647
 31
0.0
  0
LINE
  5
11B
100
AcDbEntity
  8
0
 62
256
370
-1
 48
1.0
  6
BYLAYER
100
AcDbLine
 10
88.0125000000000028
 20
179.9999999999999716
 30
0.0
 11
88.0125000000000028
 21
199.9999999999999716
 31
0.0
  0
LINE
  5
11C
100
AcDbEntity
  8
0
 62
256
370
-1
 48
1.0
  6
BYLAYER
100
AcDbLine
 10
31.4375000000000142
 20
179.9999999999999716
 30
0.0
 11
31.4375000000000142
 21
199.9999999999999716
 31
0.0
  0
LINE
  5
11D
100
AcDbEntity
  8
0
 62
256
370
-1
 48
1.0
  6
BYLAYER
100
AcDbLine
 10
-140.1245968565381759
 20
105.7304900020601224
 30
0.0
 11
-147.7782655038399753
 21
124.2080806522858722
 31
0.0
  0
LINE
  5
11E
100
AcDbEntity
  8
0
 62
256
370
-1
 48
1.0
  6
BYLAYER
100
AcDbLine
 10
88.0125000000000028
 20
79.9999999999999716
 30
0.0
 11
88.0125000000000028
 21
99.9999999999999716
 31
0.0
  0
LINE
  5
11F
100
AcDbEntity
  8
0
 62
256
370
-1
 48
1.0
  6
BYLAYER
100
AcDbLine
 10
31.4375000000000142
 20
79.9999999999999716
 30
0.0
 11
31.4375000000000142
 21
99.9999999999999716
 31
0.0
  0
LINE
  5
120
100
AcDbEntity
  8
0
 62
256
370
-1
 48
1.0
  6
BYLAYER
100
AcDbLine
 10
84.8625000000000256
 20
179.9999999999999716
 30
0.0
 11
84.8625000000000256
 21
199.9999999999999716
 31
0.0
  0
LINE
  5
121
100
AcDbEntity
  8
0
 62
256
370
-1
 48
1.0
  6
BYLAYER
100
AcDbLine
 10
28.2875000000000369
 20
179.9999999999999716
 30
0.0
 11
28.2875000000000369
 21
199.9999999999999716
 31
0.0
  0
LINE
  5
122
100
AcDbEntity
  8
0
 62
256
370
-1
 48
1.0
  6
BYLAYER
100
AcDbLine
 10
84.8625000000000256
 20
79.9999999999999716
 30
0.0
 11
84.8625000000000256
 21
99.9999999999999716
 31
0.0
  0
LINE
  5
123
100
AcDbEntity
  8
0
 62
256
370
-1
 48
1.0
  6
BYLAYER
100
AcDbLine
 10
28.2875000000000369
 20
79.9999999999999716
 30
0.0
 11
28.2875000000000369
 21
99.9999999999999716
 31
0.0
  0
LINE
  5
124
100
AcDbEntity
  8
0
 62
256
370
-1
 48
1.0
  6
BYLAYER
100
AcDbLine
 10
-150.6884860312505054
 20
123.0026278403358617
 30
0.0
 11
-181.3031606204577031
 21
196.9129904412388044
 31
0.0
  0
LINE
  5
125
100
AcDbEntity
  8
0
 62
256
370
-1
 48
1.0
  6
BYLAYER
100
AcDbLine
 10
-112.4201427947415084
 20
30.6146745892071728
 30
0.0
 11
-204.2641665623630729
 21
30.6146745892071834
 31
0.0
  0
LINE
  5
126
100
AcDbEntity
  8
0
 62
256
370
-1
 48
1.0
  6
BYLAYER
100
AcDbLine
 10
-143.0348173839487345
 20
104.5250371901101545
 30
0.0
 11
-112.4201427947415084
 21
30.6146745892071728
 31
0.0
  0
LINE
  5
127
100
AcDbEntity
  8
0
 62
256
370
-1
 48
1.0
  6
BYLAYER
100
AcDbLine
 10
-159.6674367847262488
 20
96.4308291181382629
 30
0.0
 11
-140.6963260731353103
 21
50.6146745892071692
 31
0.0
  0
LINE
  5
128
100
AcDbEntity
  8
0
 62
256
370
-1
 48
1.0
  6
BYLAYER
100
AcDbLine
 10
-188.9568292677595025
 20
215.3905810914645258
 30
0.0
 11
-204.2641665623630445
 21
252.3457623919159687
 31
0.0
  0
LINE
  5
129
100
AcDbEntity
  8
0
 62
256
370
-1
 48
1.0
  6
BYLAYER
100
AcDbLine
 10
-204.2641665623630445
 20
252.3457623919159687
 30
0.0
 11
-204.2641665623630729
 21
30.6146745892071976
 31
0.0
  0
LINE
  5
12A
100
AcDbEntity
  8
construction
 62
256
370
-1
 48
1.0
  6
BYLAYER
100
AcDbLine
 10
-158.3421546785522764
 20
30.6146745892071763
 30
0.0
 11
-158.3421546785522764
 21
50.6146745892071763
 31
0.0
  0
LINE
  5
12B
100
AcDbEntity
  8
construction
 62
256
370
-1
 48
1.0
  6
BYLAYER
100
AcDbLine
 10
-184.2641665623630729
 20
96.4308291181382344
 30
0.0
 11
-184.2641665623630729
 21
116.4308291181382344
 31
0.0
  0
LINE
  5
12C
100
AcDbEntity
  8
construction
 62
256
370
-1
 48
1.0
  6
BYLAYER
100
AcDbLine
 10
-143.0348173839487345
 20
104.5250371901101687
 30
0.0
 11
-161.1258879892292271
 21
95.9978357526656225
 31
0.0
  0
LINE
  5
12D
100
AcDbEntity
  8
construction
 62
256
370
-1
 48
1.0
  6
BYLAYER
100
AcDbLine
 10
-158.3421546785522764
 20
141.4802184905615832
 30
0.0
 11
-176.433225283832769
 21
132.953017053117037
 31
0.0
  0
LINE
  5
12E
100
AcDbEntity
  8
construction
 62
256
370
-1
 48
1.0
  6
BYLAYER
100
AcDbLine
 10
-184.2641665623630729
 20
50.6146745892071692
 30
0.0
 11
-204.2641665623630729
 21
50.6146745892071692
 31
0.0
  0
LINE
  5
12F
100
AcDbEntity
  8
construction
 62
256
370
-1
 48
1.0
  6
BYLAYER
100
AcDbLine
 10
-120.6963260731353103
 20
50.6146745892071692
 30
0.0
 11
-140.6963260731353103
 21
50.6146745892071692
 31
0.0
  0
LINE
  5
130
100
AcDbEntity
  8
0
 62
256
370
-1
 48
1.0
  6
BYLAYER
100
AcDbLine
 10
-184.2641665623630729
 20
50.6146745892071692
 30
0.0
 11
-140.6963260731353103
 21
50.6146745892071692
 31
0.0
  0
LINE
  5
131
100
AcDbEntity
  8
0
 62
256
370
-1
 48
1.0
  6
BYLAYER
100
AcDbLine
 10
-184.2641665623630729
 20
50.6146745892071692
 30
0.0
 11
-184.2641665623630729
 21
96.4308291181382629
 31
0.0
  0
LINE
  5
132
100
AcDbEntity
  8
0
 62
256
370
-1
 48
1.0
  6
BYLAYER
100
AcDbLine
 10
-184.2641665623630729
 20
96.4308291181382629
 30
0.0
 11
-159.6674367847262488
 21
96.4308291181382629
 31
0.0
  0
LINE
  5
133
100
AcDbEntity
  8
0
 62
256
370
-1
 48
1.0
  6
BYLAYER
100
AcDbLine
 10
-184.2641665623630729
 20
116.4308291181382344
 30
0.0
 11
-168.4006080497437097
 21
116.4308291181382344
 31
0.0
  0
LINE
  5
134
100
AcDbEntity
  8
0
 62
256
370
-1
 48
1.0
  6
BYLAYER
100
AcDbLine
 10
-184.2641665623630729
 20
116.4308291181382344
 30
0.0
 11
-184.2641665623630729
 21
156.3216788477794523
 31
0.0
  0
LINE
  5
135
100
AcDbEntity
  8
0
 62
256
370
-1
 48
1.0
  6
BYLAYER
100
AcDbLine
 10
-168.4006080497437097
 20
116.4308291181382344
 30
0.0
 11
-184.2806847260060863
 21
156.3632157818266819
 31
0.0
  0
ENDSEC
  0
SECTION
  2
OBJECTS
  0
DICTIONARY
  5
C
100
AcDbDictionary
280
0
281
1
  3
ACAD_GROUP
350
D
  3
ACAD_LAYOUT
350
1A
  3
ACAD_MLINESTYLE
350
17
  3
ACAD_PLOTSETTINGS
350
19
  3
ACAD_PLOTSTYLENAME
350
E
  3
AcDbVariableDictionary
350
136
  3
QCAD_OBJECTS
350
137
  0
DICTIONARY
  5
D
100
AcDbDictionary
280
0
281
1
  0
ACDBDICTIONARYWDFLT
  5
E
100
AcDbDictionary
281
1
  3
Normal
350
F
100
AcDbDictionaryWithDefault
340
F
  0
ACDBPLACEHOLDER
  5
F
  0
DICTIONARY
  5
17
100
AcDbDictionary
280
0
281
1
  3
Standard
350
18
  0
MLINESTYLE
  5
18
100
AcDbMlineStyle
  2
STANDARD
 70
0
  3

 62
256
 51
90.0
 52
90.0
 71
2
 49
0.5
 62
256
  6
BYLAYER
 49
-0.5
 62
256
  6
BYLAYER
  0
DICTIONARY
  5
19
100
AcDbDictionary
280
0
281
1
  0
DICTIONARY
  5
1A
100
AcDbDictionary
281
1
  3
Layout1
350
1E
  3
Layout2
350
26
  3
Model
350
22
  0
LAYOUT
  5
1E
100
AcDbPlotSettings
  1

  2
none_device
  4

  6

 40
0.0
 41
0.0
 42
0.0
 43
0.0
 44
0.0
 45
0.0
 46
0.0
 47
0.0
 48
0.0
 49
0.0
140
0.0
141
0.0
142
1.0
143
1.0
 70
688
 72
0
 73
0
 74
5
  7

 75
16
147
1.0
148
0.0
149
0.0
100
AcDbLayout
  1
Layout1
 70
1
 71
1
 10
0.0
 20
0.0
 11
420.0
 21
297.0
 12
0.0
 22
0.0
 32
0.0
 14
100000000000000000000.0
 24
100000000000000000000.0
 34
100000000000000000000.0
 15
-100000000000000000000.0
 25
-100000000000000000000.0
 35
-100000000000000000000.0
146
0.0
 13
0.0
 23
0.0
 33
0.0
 16
1.0
 26
0.0
 36
0.0
 17
0.0
 27
1.0
 37
0.0
 76
0
330
1B
  0
LAYOUT
  5
22
100
AcDbPlotSettings
  1

  2
none_device
  4

  6

 40
0.0
 41
0.0
 42
0.0
 43
0.0
 44
0.0
 45
0.0
 46
0.0
 47
0.0
 48
0.0
 49
0.0
140
0.0
141
0.0
142
1.0
143
1.0
 70
1712
 72
0
 73
0
 74
0
  7

 75
0
147
1.0
148
0.0
149
0.0
100
AcDbLayout
  1
Model
 70
1
 71
0
 10
0.0
 20
0.0
 11
12.0
 21
9.0
 12
0.0
 22
0.0
 32
0.0
 14
0.0
 24
0.0
 34
0.0
 15
0.0
 25
0.0
 35
0.0
146
0.0
 13
0.0
 23
0.0
 33
0.0
 16
1.0
 26
0.0
 36
0.0
 17
0.0
 27
1.0
 37
0.0
 76
0
330
1F
  0
LAYOUT
  5
26
100
AcDbPlotSettings
  1

  2
none_device
  4

  6

 40
0.0
 41
0.0
 42
0.0
 43
0.0
 44
0.0
 45
0.0
 46
0.0
 47
0.0
 48
0.0
 49
0.0
140
0.0
141
0.0
142
1.0
143
1.0
 70
688
 72
0
 73
0
 74
5
  7

 75
16
147
1.0
148
0.0
149
0.0
100
AcDbLayout
  1
Layout2
 70
1
 71
2
 10
0.0
 20
0.0
 11
12.0
 21
9.0
 12
0.0
 22
0.0
 32
0.0
 14
0.0
 24
0.0
 34
0.0
 15
0.0
 25
0.0
 35
0.0
146
0.0
 13
0.0
 23
0.0
 33
0.0
 16
1.0
 26
0.0
 36
0.0
 17
0.0
 27
1.0
 37
0.0
 76
0
330
23
  0
DICTIONARY
  5
136
100
AcDbDictionary
281
1
  3
DIMASSOC
350
139
  3
HIDETEXT
350
138
  0
DICTIONARYVAR
  5
138
100
DictionaryVariables
280
0
  1
2
  0
DICTIONARYVAR
  5
139
100
DictionaryVariables
280
0
  1
1
  0
DICTIONARY
  5
137
100
AcDbDictionary
281
1
  3
ColorSettings/BackgroundColor
350
13A
  3
ColorSettings/ColorMode
350
13B
  3
Grid/DisplayGrid00
350
13C
  3
Grid/DisplayGrid01
350
13D
  3
Grid/DisplayGrid02
350
13E
  3
Grid/DisplayGrid03
350
13F
  3
Grid/GridSpacingX00
350
140
  3
Grid/GridSpacingX01
350
141
  3
Grid/GridSpacingX02
350
142
  3
Grid/GridSpacingX03
350
143
  3
Grid/GridSpacingY00
350
144
  3
Grid/GridSpacingY01
350
145
  3
Grid/GridSpacingY02
350
146
  3
Grid/GridSpacingY03
350
147
  3
Grid/IsometricGrid00
350
148
  3
Grid/IsometricGrid01
350
149
  3
Grid/IsometricGrid02
350
14A
  3
Grid/IsometricGrid03
350
14B
  3
Grid/IsometricProjection00
350
14C
  3
Grid/IsometricProjection01
350
14D
  3
Grid/IsometricProjection02
350
14E
  3
Grid/IsometricProjection03
350
14F
  3
Grid/MetaGridSpacingX00
350
150
  3
Grid/MetaGridSpacingX01
350
151
  3
Grid/MetaGridSpacingX02
350
152
  3
Grid/MetaGridSpacingX03
350
153
  3
Grid/MetaGridSpacingY00
350
154
  3
Grid/MetaGridSpacingY01
350
155
  3
Grid/MetaGridSpacingY02
350
156
  3
Grid/MetaGridSpacingY03
350
157
  3
MultiPageSettings/Columns
350
158
  3
MultiPageSettings/GlueMarginsBottom
350
159
  3
MultiPageSettings/GlueMarginsLeft
350
15A
  3
MultiPageSettings/GlueMarginsRight
350
15B
  3
MultiPageSettings/GlueMarginsTop
350
15C
  3
MultiPageSettings/PrintCropMarks
350
15D
  3
MultiPageSettings/Rows
350
15E
  3
PageSettings/OffsetX
350
15F
  3
PageSettings/OffsetY
350
160
  3
PageSettings/PageOrientation
350
161
  3
PageSettings/PaperHeight
350
162
  3
PageSettings/PaperWidth
350
163
  3
PageSettings/Scale
350
164
  3
PageSettings/ShowPaperBorders
350
165
  3
QCADVersion
350
166
  3
UnitSettings/PaperUnit
350
167
  3
ViewportCenter
350
168
  3
ViewportHeight
350
169
  3
ViewportWidth
350
16A
  0
XRECORD
  5
13A
330
137
100
AcDbXrecord
280
1
1000
White
  0
XRECORD
  5
13B
330
137
100
AcDbXrecord
280
1
1000
FullColor
  0
XRECORD
  5
13C
330
137
100
AcDbXrecord
280
1
290
1
  0
XRECORD
  5
13D
330
137
100
AcDbXrecord
280
1
290
1
  0
XRECORD
  5
13E
330
137
100
AcDbXrecord
280
1
290
1
  0
XRECORD
  5
13F
330
137
100
AcDbXrecord
280
1
290
1
  0
XRECORD
  5
140
330
137
100
AcDbXrecord
280
1
1000
auto
  0
XRECORD
  5
141
330
137
100
AcDbXrecord
280
1
1000
auto
  0
XRECORD
  5
142
330
137
100
AcDbXrecord
280
1
1000
auto
  0
XRECORD
  5
143
330
137
100
AcDbXrecord
280
1
1000
auto
  0
XRECORD
  5
144
330
137
100
AcDbXrecord
280
1
1000
auto
  0
XRECORD
  5
145
330
137
100
AcDbXrecord
280
1
1000
auto
  0
XRECORD
  5
146
330
137
100
AcDbXrecord
280
1
1000
auto
  0
XRECORD
  5
147
330
137
100
AcDbXrecord
280
1
1000
auto
  0
XRECORD
  5
148
330
137
100
AcDbXrecord
280
1
290
0
  0
XRECORD
  5
149
330
137
100
AcDbXrecord
280
1
290
0
  0
XRECORD
  5
14A
330
137
100
AcDbXrecord
280
1
290
0
  0
XRECORD
  5
14B
330
137
100
AcDbXrecord
280
1
290
0
  0
XRECORD
  5
14C
330
137
100
AcDbXrecord
280
1
 90
65537
  0
XRECORD
  5
14D
330
137
100
AcDbXrecord
280
1
 90
65537
  0
XRECORD
  5
14E
330
137
100
AcDbXrecord
280
1
 90
65537
  0
XRECORD
  5
14F
330
137
100
AcDbXrecord
280
1
 90
65537
  0
XRECORD
  5
150
330
137
100
AcDbXrecord
280
1
1000
auto
  0
XRECORD
  5
151
330
137
100
AcDbXrecord
280
1
1000
auto
  0
XRECORD
  5
152
330
137
100
AcDbXrecord
280
1
1000
auto
  0
XRECORD
  5
153
330
137
100
AcDbXrecord
280
1
1000
auto
  0
XRECORD
  5
154
330
137
100
AcDbXrecord
280
1
1000
auto
  0
XRECORD
  5
155
330
137
100
AcDbXrecord
280
1
1000
auto
  0
XRECORD
  5
156
330
137
100
AcDbXrecord
280
1
1000
auto
  0
XRECORD
  5
157
330
137
100
AcDbXrecord
280
1
1000
auto
  0
XRECORD
  5
158
330
137
100
AcDbXrecord
280
1
 90
1
  0
XRECORD
  5
159
330
137
100
AcDbXrecord
280
1
 40
10.0
  0
XRECORD
  5
15A
330
137
100
AcDbXrecord
280
1
 40
10.0
  0
XRECORD
  5
15B
330
137
100
AcDbXrecord
280
1
 40
10.0
  0
XRECORD
  5
15C
330
137
100
AcDbXrecord
280
1
 40
10.0
  0
XRECORD
  5
15D
330
137
100
AcDbXrecord
280
1
290
0
  0
XRECORD
  5
15E
330
137
100
AcDbXrecord
280
1
 90
1
  0
XRECORD
  5
15F
330
137
100
AcDbXrecord
280
1
 40
0.0
  0
XRECORD
  5
160
330
137
100
AcDbXrecord
280
1
 40
0.0
  0
XRECORD
  5
161
330
137
100
AcDbXrecord
280
1
1000
Portrait
  0
XRECORD
  5
162
330
137
100
AcDbXrecord
280
1
 40
297.0
  0
XRECORD
  5
163
330
137
100
AcDbXrecord
280
1
 40
210.0
  0
XRECORD
  5
164
330
137
100
AcDbXrecord
280
1
1000
1:1
  0
XRECORD
  5
165
330
137
100
AcDbXrecord
280
1
290
1
  0
XRECORD
  5
166
330
137
100
AcDbXrecord
280
1
1000
3.21.3
  0
XRECORD
  5
167
330
137
100
AcDbXrecord
280
1
 90
4
  0
XRECORD
  5
169
330
137
100
AcDbXrecord
280
1
 40
657.1930243482064498
  0
XRECORD
  5
16A
330
137
100
AcDbXrecord
280
1
 40
1361.2103630883639198
  0
ENDSEC
  0
EOF
