999
dxflib 3.17.0.0
  0
SECTION
  2
HEADER
  9
$ACADVER
  1
AC1015
  9
$HANDSEED
  5
FFFF
  9
$DIMADEC
 70
0
  9
$DIMASZ
 40
0.18
  9
$DIMAUNIT
 70
0
  9
$DIMAZIN
 70
0
  9
$DIMDEC
 70
4
  9
$DIMDSEP
 70
46
  9
$DIMEXE
 40
0.18
  9
$DIMEXO
 40
0.0625
  9
$DIMGAP
 40
0.09
  9
$DIMLUNIT
 70
2
  9
$DIMSCALE
 40
1.0
  9
$DIMTSZ
 40
0.0
  9
$DIMTXT
 40
0.18
  9
$DIMZIN
 70
0
  9
$DWGCODEPAGE
  3
ANSI_1252
  9
$INSUNITS
 70
0
  9
$LTSCALE
 40
1.0
  9
$MAXACTVP
 70
32
  9
$MEASUREMENT
 70
1
  9
$PDMODE
 70
0
  9
$PDSIZE
 40
0
  0
ENDSEC
  0
SECTION
  2
TABLES
  0
TABLE
  2
VPORT
  5
8
100
AcDbSymbolTable
 70
1
  0
VPORT
  5
30
100
AcDbSymbolTableRecord
100
AcDbViewportTableRecord
  2
*Active
 70
0
 10
0.0
 20
0.0
 11
1.0
 21
1.0
 12
286.3055555555554861
 22
148.5
 13
0.0
 23
0.0
 14
10.0
 24
10.0
 15
10.0
 25
10.0
 16
0.0
 26
0.0
 36
1.0
 17
0.0
 27
0.0
 37
0.0
 40
297.0
 41
1.92798353909465
 42
50.0
 43
0.0
 44
0.0
 50
0.0
 51
0.0
 71
0
 72
100
 73
1
 74
3
 75
1
 76
1
 77
0
 78
0
281
0
 65
1
110
0.0
120
0.0
130
0.0
111
1.0
121
0.0
131
0.0
112
0.0
122
1.0
132
0.0
 79
0
146
0.0
  0
ENDTAB
  0
TABLE
  2
LTYPE
  5
5
100
AcDbSymbolTable
 70
41
  0
LTYPE
  5
16
100
AcDbSymbolTableRecord
100
AcDbLinetypeTableRecord
  2
CONTINUOUS
 70
0
  3
Solid line
 72
65
 73
0
 40
0.0
  0
LTYPE
  5
31
100
AcDbSymbolTableRecord
100
AcDbLinetypeTableRecord
  2
ACAD_ISO07W100
 70
0
  3
ISO dot . . . . . . . . . . . . . . . . . . . . 
 72
65
 73
2
 40
3.0
 49
0.0
 74
0
 49
-3.0
 74
0
  0
LTYPE
  5
32
100
AcDbSymbolTableRecord
100
AcDbLinetypeTableRecord
  2
DIVIDE2
 70
0
  3
Divide (.5x) __..__..__..__..__..__..__..__.._
 72
65
 73
6
 40
15.875
 49
6.3499999999999996
 74
0
 49
-3.1749999999999998
 74
0
 49
0.0
 74
0
 49
-3.1749999999999998
 74
0
 49
0.0
 74
0
 49
-3.1749999999999998
 74
0
  0
LTYPE
  5
33
100
AcDbSymbolTableRecord
100
AcDbLinetypeTableRecord
  2
DOT
 70
0
  3
Dot . . . . . . . . . . . . . . . . . . . . . . . .
 72
65
 73
2
 40
6.3499999999999996
 49
0.0
 74
0
 49
-6.3499999999999996
 74
0
  0
LTYPE
  5
34
100
AcDbSymbolTableRecord
100
AcDbLinetypeTableRecord
  2
ACAD_ISO03W100
 70
0
  3
ISO dash space __    __    __    __    __    __
 72
65
 73
2
 40
30.0
 49
12.0
 74
0
 49
-18.0
 74
0
  0
LTYPE
  5
35
100
AcDbSymbolTableRecord
100
AcDbLinetypeTableRecord
  2
DASHDOT
 70
0
  3
Dash dot __ . __ . __ . __ . __ . __ . __ . __
 72
65
 73
4
 40
25.3999999999999986
 49
12.6999999999999993
 74
0
 49
-6.3499999999999996
 74
0
 49
0.0
 74
0
 49
-6.3499999999999996
 74
0
  0
LTYPE
  5
36
100
AcDbSymbolTableRecord
100
AcDbLinetypeTableRecord
  2
DASHED2
 70
0
  3
Dashed (.5x) _ _ _ _ _ _ _ _ _ _ _ _ _ _ _ _ _ 
 72
65
 73
2
 40
9.5249999999999986
 49
6.3499999999999996
 74
0
 49
-3.1749999999999998
 74
0
  0
LTYPE
  5
37
100
AcDbSymbolTableRecord
100
AcDbLinetypeTableRecord
  2
BORDER2
 70
0
  3
Border (.5x) __.__.__.__.__.__.__.__.__.__.__.
 72
65
 73
6
 40
22.2249999999999979
 49
6.3499999999999996
 74
0
 49
-3.1749999999999998
 74
0
 49
6.3499999999999996
 74
0
 49
-3.1749999999999998
 74
0
 49
0.0
 74
0
 49
-3.1749999999999998
 74
0
  0
LTYPE
  5
38
100
AcDbSymbolTableRecord
100
AcDbLinetypeTableRecord
  2
HIDDENX2
 70
0
  3
Hidden (2x) ____ ____ ____ ____ ____ ____ ____ 
 72
65
 73
2
 40
19.0499999999999972
 49
12.6999999999999993
 74
0
 49
-6.3499999999999996
 74
0
  0
LTYPE
  5
39
100
AcDbSymbolTableRecord
100
AcDbLinetypeTableRecord
  2
DIVIDE
 70
0
  3
Divide ____ . . ____ . . ____ . . ____ . . ____
 72
65
 73
6
 40
31.75
 49
12.6999999999999993
 74
0
 49
-6.3499999999999996
 74
0
 49
0.0
 74
0
 49
-6.3499999999999996
 74
0
 49
0.0
 74
0
 49
-6.3499999999999996
 74
0
  0
LTYPE
  5
3A
100
AcDbSymbolTableRecord
100
AcDbLinetypeTableRecord
  2
BORDER
 70
0
  3
Border __ __ . __ __ . __ __ . __ __ . __ __ .
 72
65
 73
6
 40
44.4499999999999957
 49
12.6999999999999993
 74
0
 49
-6.3499999999999996
 74
0
 49
12.6999999999999993
 74
0
 49
-6.3499999999999996
 74
0
 49
0.0
 74
0
 49
-6.3499999999999996
 74
0
  0
LTYPE
  5
3B
100
AcDbSymbolTableRecord
100
AcDbLinetypeTableRecord
  2
ACAD_ISO04W100
 70
0
  3
ISO long-dash dot ____ . ____ . ____ . ____ . _
 72
65
 73
4
 40
30.0
 49
24.0
 74
0
 49
-3.0
 74
0
 49
0.0
 74
0
 49
-3.0
 74
0
  0
LTYPE
  5
3C
100
AcDbSymbolTableRecord
100
AcDbLinetypeTableRecord
  2
BORDERX2
 70
0
  3
Border (2x) ____  ____  .  ____  ____  .  ___
 72
65
 73
6
 40
88.8999999999999915
 49
25.3999999999999986
 74
0
 49
-12.6999999999999993
 74
0
 49
25.3999999999999986
 74
0
 49
-12.6999999999999993
 74
0
 49
0.0
 74
0
 49
-12.6999999999999993
 74
0
  0
LTYPE
  5
3D
100
AcDbSymbolTableRecord
100
AcDbLinetypeTableRecord
  2
DASHED
 70
0
  3
Dashed __ __ __ __ __ __ __ __ __ __ __ __ __ _
 72
65
 73
2
 40
19.0499999999999972
 49
12.6999999999999993
 74
0
 49
-6.3499999999999996
 74
0
  0
LTYPE
  5
3E
100
AcDbSymbolTableRecord
100
AcDbLinetypeTableRecord
  2
DIVIDEX2
 70
0
  3
Divide (2x) ________  .  .  ________  .  .  _
 72
65
 73
6
 40
63.5
 49
25.3999999999999986
 74
0
 49
-12.6999999999999993
 74
0
 49
0.0
 74
0
 49
-12.6999999999999993
 74
0
 49
0.0
 74
0
 49
-12.6999999999999993
 74
0
  0
LTYPE
  5
3F
100
AcDbSymbolTableRecord
100
AcDbLinetypeTableRecord
  2
ACAD_ISO15W100
 70
0
  3
ISO double-dash triple-dot __ __ . . . __ __ . .
 72
65
 73
10
 40
39.0
 49
12.0
 74
0
 49
-3.0
 74
0
 49
12.0
 74
0
 49
-3.0
 74
0
 49
0.0
 74
0
 49
-3.0
 74
0
 49
0.0
 74
0
 49
-3.0
 74
0
 49
0.0
 74
0
 49
-3.0
 74
0
  0
LTYPE
  5
40
100
AcDbSymbolTableRecord
100
AcDbLinetypeTableRecord
  2
CENTERX2
 70
0
  3
Center (2x) ________  __  ________  __  _____
 72
65
 73
4
 40
101.6000000000000085
 49
63.5
 74
0
 49
-12.6999999999999993
 74
0
 49
12.6999999999999993
 74
0
 49
-12.6999999999999993
 74
0
  0
LTYPE
  5
41
100
AcDbSymbolTableRecord
100
AcDbLinetypeTableRecord
  2
ACAD_ISO11W100
 70
0
  3
ISO double-dash dot __ __ . __ __ . __ __ . __ _
 72
65
 73
6
 40
33.0
 49
12.0
 74
0
 49
-3.0
 74
0
 49
12.0
 74
0
 49
-3.0
 74
0
 49
0.0
 74
0
 49
-3.0
 74
0
  0
LTYPE
  5
42
100
AcDbSymbolTableRecord
100
AcDbLinetypeTableRecord
  2
ACAD_ISO12W100
 70
0
  3
ISO dash double-dot __ . . __ . . __ . . __ . . 
 72
65
 73
6
 40
21.0
 49
12.0
 74
0
 49
-3.0
 74
0
 49
0.0
 74
0
 49
-3.0
 74
0
 49
0.0
 74
0
 49
-3.0
 74
0
  0
LTYPE
  5
43
100
AcDbSymbolTableRecord
100
AcDbLinetypeTableRecord
  2
ACAD_ISO02W100
 70
0
  3
ISO dash __ __ __ __ __ __ __ __ __ __ __ __ __
 72
65
 73
2
 40
15.0
 49
12.0
 74
0
 49
-3.0
 74
0
  0
LTYPE
  5
44
100
AcDbSymbolTableRecord
100
AcDbLinetypeTableRecord
  2
DASHDOTX2
 70
0
  3
Dash dot (2x) ____  .  ____  .  ____  .  ___
 72
65
 73
4
 40
50.7999999999999972
 49
25.3999999999999986
 74
0
 49
-12.6999999999999993
 74
0
 49
0.0
 74
0
 49
-12.6999999999999993
 74
0
  0
LTYPE
  5
45
100
AcDbSymbolTableRecord
100
AcDbLinetypeTableRecord
  2
CENTER
 70
0
  3
Center ____ _ ____ _ ____ _ ____ _ ____ _ ____
 72
65
 73
4
 40
50.8000000000000043
 49
31.75
 74
0
 49
-6.3499999999999996
 74
0
 49
6.3499999999999996
 74
0
 49
-6.3499999999999996
 74
0
  0
LTYPE
  5
46
100
AcDbSymbolTableRecord
100
AcDbLinetypeTableRecord
  2
ACAD_ISO08W100
 70
0
  3
ISO long-dash short-dash ____ __ ____ __ ____ _
 72
65
 73
4
 40
36.0
 49
24.0
 74
0
 49
-3.0
 74
0
 49
6.0
 74
0
 49
-3.0
 74
0
  0
LTYPE
  5
47
100
AcDbSymbolTableRecord
100
AcDbLinetypeTableRecord
  2
DASHEDX2
 70
0
  3
Dashed (2x) ____  ____  ____  ____  ____  ___
 72
65
 73
2
 40
38.0999999999999943
 49
25.3999999999999986
 74
0
 49
-12.6999999999999993
 74
0
  0
LTYPE
  5
48
100
AcDbSymbolTableRecord
100
AcDbLinetypeTableRecord
  2
ACAD_ISO13W100
 70
0
  3
ISO double-dash double-dot __ __ . . __ __ . . _
 72
65
 73
8
 40
36.0
 49
12.0
 74
0
 49
-3.0
 74
0
 49
12.0
 74
0
 49
-3.0
 74
0
 49
0.0
 74
0
 49
-3.0
 74
0
 49
0.0
 74
0
 49
-3.0
 74
0
  0
LTYPE
  5
49
100
AcDbSymbolTableRecord
100
AcDbLinetypeTableRecord
  2
DOT2
 70
0
  3
Dot (.5x) ........................................
 72
65
 73
2
 40
3.1749999999999998
 49
0.0
 74
0
 49
-3.1749999999999998
 74
0
  0
LTYPE
  5
4A
100
AcDbSymbolTableRecord
100
AcDbLinetypeTableRecord
  2
ACAD_ISO10W100
 70
0
  3
ISO dash dot __ . __ . __ . __ . __ . __ . __ . 
 72
65
 73
4
 40
18.0
 49
12.0
 74
0
 49
-3.0
 74
0
 49
0.0
 74
0
 49
-3.0
 74
0
  0
LTYPE
  5
4B
100
AcDbSymbolTableRecord
100
AcDbLinetypeTableRecord
  2
DASHDOT2
 70
0
  3
Dash dot (.5x) _._._._._._._._._._._._._._._.
 72
65
 73
4
 40
12.6999999999999993
 49
6.3499999999999996
 74
0
 49
-3.1749999999999998
 74
0
 49
0.0
 74
0
 49
-3.1749999999999998
 74
0
  0
LTYPE
  5
4C
100
AcDbSymbolTableRecord
100
AcDbLinetypeTableRecord
  2
HIDDEN2
 70
0
  3
Hidden (.5x) _ _ _ _ _ _ _ _ _ _ _ _ _ _ _ _ _ 
 72
65
 73
2
 40
4.7624999999999993
 49
3.1749999999999998
 74
0
 49
-1.5874999999999999
 74
0
  0
LTYPE
  5
4D
100
AcDbSymbolTableRecord
100
AcDbLinetypeTableRecord
  2
ACAD_ISO14W100
 70
0
  3
ISO dash triple-dot __ . . . __ . . . __ . . . _
 72
65
 73
8
 40
24.0
 49
12.0
 74
0
 49
-3.0
 74
0
 49
0.0
 74
0
 49
-3.0
 74
0
 49
0.0
 74
0
 49
-3.0
 74
0
 49
0.0
 74
0
 49
-3.0
 74
0
  0
LTYPE
  5
14
100
AcDbSymbolTableRecord
100
AcDbLinetypeTableRecord
  2
BYBLOCK
 70
0
  3

 72
65
 73
0
 40
0.0
  0
LTYPE
  5
4E
100
AcDbSymbolTableRecord
100
AcDbLinetypeTableRecord
  2
ACAD_ISO06W100
 70
0
  3
ISO long-dash triple-dot ____ ... ____ ... ____
 72
65
 73
8
 40
36.0
 49
24.0
 74
0
 49
-3.0
 74
0
 49
0.0
 74
0
 49
-3.0
 74
0
 49
0.0
 74
0
 49
-3.0
 74
0
 49
0.0
 74
0
 49
-3.0
 74
0
  0
LTYPE
  5
4F
100
AcDbSymbolTableRecord
100
AcDbLinetypeTableRecord
  2
PHANTOMX2
 70
0
  3
Phantom (2x) ____________    ____    ____   _
 72
65
 73
6
 40
127.0000000000000142
 49
63.5
 74
0
 49
-12.6999999999999993
 74
0
 49
12.6999999999999993
 74
0
 49
-12.6999999999999993
 74
0
 49
12.6999999999999993
 74
0
 49
-12.6999999999999993
 74
0
  0
LTYPE
  5
50
100
AcDbSymbolTableRecord
100
AcDbLinetypeTableRecord
  2
DOTX2
 70
0
  3
Dot (2x) .  .  .  .  .  .  .  .  .  .  .  .  .  .
 72
65
 73
2
 40
12.6999999999999993
 49
0.0
 74
0
 49
-12.6999999999999993
 74
0
  0
LTYPE
  5
51
100
AcDbSymbolTableRecord
100
AcDbLinetypeTableRecord
  2
PHANTOM
 70
0
  3
Phantom ______  __  __  ______  __  __  ______ 
 72
65
 73
6
 40
63.5000000000000071
 49
31.75
 74
0
 49
-6.3499999999999996
 74
0
 49
6.3499999999999996
 74
0
 49
-6.3499999999999996
 74
0
 49
6.3499999999999996
 74
0
 49
-6.3499999999999996
 74
0
  0
LTYPE
  5
52
100
AcDbSymbolTableRecord
100
AcDbLinetypeTableRecord
  2
HIDDEN
 70
0
  3
Hidden __ __ __ __ __ __ __ __ __ __ __ __ __ __
 72
65
 73
2
 40
9.5249999999999986
 49
6.3499999999999996
 74
0
 49
-3.1749999999999998
 74
0
  0
LTYPE
  5
53
100
AcDbSymbolTableRecord
100
AcDbLinetypeTableRecord
  2
PHANTOM2
 70
0
  3
Phantom (.5x) ___ _ _ ___ _ _ ___ _ _ ___ _ _
 72
65
 73
6
 40
31.7500000000000036
 49
15.875
 74
0
 49
-3.1749999999999998
 74
0
 49
3.1749999999999998
 74
0
 49
-3.1749999999999998
 74
0
 49
3.1749999999999998
 74
0
 49
-3.1749999999999998
 74
0
  0
LTYPE
  5
15
100
AcDbSymbolTableRecord
100
AcDbLinetypeTableRecord
  2
BYLAYER
 70
0
  3

 72
65
 73
0
 40
0.0
  0
LTYPE
  5
54
100
AcDbSymbolTableRecord
100
AcDbLinetypeTableRecord
  2
CENTER2
 70
0
  3
Center (.5x) ___ _ ___ _ ___ _ ___ _ ___ _ ___
 72
65
 73
4
 40
28.5750000000000028
 49
19.0500000000000007
 74
0
 49
-3.1749999999999998
 74
0
 49
3.1749999999999998
 74
0
 49
-3.1749999999999998
 74
0
  0
LTYPE
  5
55
100
AcDbSymbolTableRecord
100
AcDbLinetypeTableRecord
  2
ACAD_ISO05W100
 70
0
  3
ISO long-dash double-dot ____ .. ____ .. ____ . 
 72
65
 73
6
 40
33.0
 49
24.0
 74
0
 49
-3.0
 74
0
 49
0.0
 74
0
 49
-3.0
 74
0
 49
0.0
 74
0
 49
-3.0
 74
0
  0
LTYPE
  5
56
100
AcDbSymbolTableRecord
100
AcDbLinetypeTableRecord
  2
ACAD_ISO09W100
 70
0
  3
ISO long-dash double-short-dash ____ __ __ ____
 72
65
 73
6
 40
45.0
 49
24.0
 74
0
 49
-3.0
 74
0
 49
6.0
 74
0
 49
-3.0
 74
0
 49
6.0
 74
0
 49
-3.0
 74
0
  0
ENDTAB
  0
TABLE
  2
LAYER
  5
2
100
AcDbSymbolTable
 70
1
  0
LAYER
  5
10
100
AcDbSymbolTableRecord
100
AcDbLayerTableRecord
  2
0
 70
0
 62
7
  6
CONTINUOUS
370
5
390
F
  0
ENDTAB
  0
TABLE
  2
STYLE
  5
3
100
AcDbSymbolTable
 70
1
  0
STYLE
  5
57
100
AcDbSymbolTableRecord
100
AcDbTextStyleTableRecord
  2
Standard
 70
0
 40
0.0
 41
1.0
 50
0.0
 71
0
 42
2.5
  3

  4

1001
ACAD
1000
txt
1071
0
  0
ENDTAB
  0
TABLE
  2
VIEW
  5
6
100
AcDbSymbolTable
 70
0
  0
ENDTAB
  0
TABLE
  2
UCS
  5
7
100
AcDbSymbolTable
 70
0
  0
ENDTAB
  0
TABLE
  2
APPID
  5
9
100
AcDbSymbolTable
 70
1
  0
APPID
  5
12
100
AcDbSymbolTableRecord
100
AcDbRegAppTableRecord
  2
ACAD
 70
0
  0
APPID
  5
58
100
AcDbSymbolTableRecord
100
AcDbRegAppTableRecord
  2
QCAD
 70
0
  0
ENDTAB
  0
TABLE
  2
DIMSTYLE
  5
A
100
AcDbSymbolTable
 70
1
100
AcDbDimStyleTable
 71
0
  0
DIMSTYLE
105
27
100
AcDbSymbolTableRecord
100
AcDbDimStyleTableRecord
  2
Standard
 41
0.18
 42
0.0625
 43
3.75
 44
0.18
 70
0
 73
0
 74
0
 77
1
 78
8
140
0.18
141
2.5
143
0.03937007874016
147
0.09
171
3
172
1
271
2
272
2
274
3
278
44
283
0
284
8
340
57
  0
ENDTAB
  0
TABLE
  2
BLOCK_RECORD
  5
1
100
AcDbSymbolTable
 70
1
  0
BLOCK_RECORD
  5
1F
100
AcDbSymbolTableRecord
100
AcDbBlockTableRecord
  2
*Model_Space
340
22
  0
BLOCK_RECORD
  5
1B
100
AcDbSymbolTableRecord
100
AcDbBlockTableRecord
  2
*Paper_Space
340
1E
  0
BLOCK_RECORD
  5
23
100
AcDbSymbolTableRecord
100
AcDbBlockTableRecord
  2
*Paper_Space0
340
26
  0
ENDTAB
  0
ENDSEC
  0
SECTION
  2
BLOCKS
  0
BLOCK
  5
20
100
AcDbEntity
  8
0
100
AcDbBlockBegin
  2
*Model_Space
 70
0
 10
0.0
 20
0.0
 30
0.0
  3
*Model_Space
  1

  0
ENDBLK
  5
21
100
AcDbEntity
  8
0
100
AcDbBlockEnd
  0
BLOCK
  5
1C
100
AcDbEntity
 67
1
  8
0
100
AcDbBlockBegin
  2
*Paper_Space
 70
0
 10
0.0
 20
0.0
 30
0.0
  3
*Paper_Space
  1

  0
ENDBLK
  5
1D
100
AcDbEntity
 67
1
  8
0
100
AcDbBlockEnd
  0
BLOCK
  5
24
100
AcDbEntity
  8
0
100
AcDbBlockBegin
  2
*Paper_Space0
 70
0
 10
0.0
 20
0.0
 30
0.0
  3
*Paper_Space0
  1

  0
ENDBLK
  5
25
100
AcDbEntity
  8
0
100
AcDbBlockEnd
  0
ENDSEC
  0
SECTION
  2
ENTITIES
  0
LINE
  5
59
100
AcDbEntity
  8
0
 62
7
420
16777215
370
-1
 48
1.0
  6
BYLAYER
100
AcDbLine
 10
18.6269999999999989
 20
169.1269770000000108
 30
0.0
 11
18.6269999999999989
 21
172.1269800000000032
 31
0.0
  0
LINE
  5
5A
100
AcDbEntity
  8
0
 62
7
420
16777215
370
-1
 48
1.0
  6
BYLAYER
100
AcDbLine
 10
18.6269999999999989
 20
172.1269800000000032
 30
0.0
 11
25.6270050000000005
 21
172.1269800000000032
 31
0.0
  0
LINE
  5
5B
100
AcDbEntity
  8
0
 62
7
420
16777215
370
-1
 48
1.0
  6
BYLAYER
100
AcDbLine
 10
25.6270050000000005
 20
172.1269800000000032
 30
0.0
 11
25.6270050000000005
 21
169.1269770000000108
 31
0.0
  0
LINE
  5
5C
100
AcDbEntity
  8
0
 62
7
420
16777215
370
-1
 48
1.0
  6
BYLAYER
100
AcDbLine
 10
25.6270050000000005
 20
169.1269770000000108
 30
0.0
 11
32.6270120000000006
 21
169.1269770000000108
 31
0.0
  0
LINE
  5
5D
100
AcDbEntity
  8
0
 62
7
420
16777215
370
-1
 48
1.0
  6
BYLAYER
100
AcDbLine
 10
32.6270120000000006
 20
169.1269770000000108
 30
0.0
 11
32.6270120000000006
 21
172.1269800000000032
 31
0.0
  0
LINE
  5
5E
100
AcDbEntity
  8
0
 62
7
420
16777215
370
-1
 48
1.0
  6
BYLAYER
100
AcDbLine
 10
32.6270120000000006
 20
172.1269800000000032
 30
0.0
 11
39.6270179999999996
 21
172.1269800000000032
 31
0.0
  0
LINE
  5
5F
100
AcDbEntity
  8
0
 62
7
420
16777215
370
-1
 48
1.0
  6
BYLAYER
100
AcDbLine
 10
39.6270179999999996
 20
172.1269800000000032
 30
0.0
 11
39.6270179999999996
 21
169.1269770000000108
 31
0.0
  0
LINE
  5
60
100
AcDbEntity
  8
0
 62
7
420
16777215
370
-1
 48
1.0
  6
BYLAYER
100
AcDbLine
 10
39.6270179999999996
 20
169.1269770000000108
 30
0.0
 11
46.6270209999999992
 21
169.1269770000000108
 31
0.0
  0
LINE
  5
61
100
AcDbEntity
  8
0
 62
7
420
16777215
370
-1
 48
1.0
  6
BYLAYER
100
AcDbLine
 10
46.6270209999999992
 20
169.1269770000000108
 30
0.0
 11
46.6270209999999992
 21
172.1269800000000032
 31
0.0
  0
LINE
  5
62
100
AcDbEntity
  8
0
 62
7
420
16777215
370
-1
 48
1.0
  6
BYLAYER
100
AcDbLine
 10
46.6270209999999992
 20
172.1269800000000032
 30
0.0
 11
53.6270299999999978
 21
172.1269800000000032
 31
0.0
  0
LINE
  5
63
100
AcDbEntity
  8
0
 62
7
420
16777215
370
-1
 48
1.0
  6
BYLAYER
100
AcDbLine
 10
53.6270299999999978
 20
172.1269800000000032
 30
0.0
 11
53.6270299999999978
 21
169.1269770000000108
 31
0.0
  0
LINE
  5
64
100
AcDbEntity
  8
0
 62
7
420
16777215
370
-1
 48
1.0
  6
BYLAYER
100
AcDbLine
 10
53.6270299999999978
 20
169.1269770000000108
 30
0.0
 11
60.6270349999999993
 21
169.1269770000000108
 31
0.0
  0
LINE
  5
65
100
AcDbEntity
  8
0
 62
7
420
16777215
370
-1
 48
1.0
  6
BYLAYER
100
AcDbLine
 10
60.6270349999999993
 20
169.1269770000000108
 30
0.0
 11
60.6270349999999993
 21
172.1269800000000032
 31
0.0
  0
LINE
  5
66
100
AcDbEntity
  8
0
 62
7
420
16777215
370
-1
 48
1.0
  6
BYLAYER
100
AcDbLine
 10
60.6270349999999993
 20
172.1269800000000032
 30
0.0
 11
67.6270410000000055
 21
172.1269800000000032
 31
0.0
  0
LINE
  5
67
100
AcDbEntity
  8
0
 62
7
420
16777215
370
-1
 48
1.0
  6
BYLAYER
100
AcDbLine
 10
67.6270410000000055
 20
172.1269800000000032
 30
0.0
 11
67.6270410000000055
 21
169.1269770000000108
 31
0.0
  0
LINE
  5
68
100
AcDbEntity
  8
0
 62
7
420
16777215
370
-1
 48
1.0
  6
BYLAYER
100
AcDbLine
 10
67.6270410000000055
 20
169.1269770000000108
 30
0.0
 11
74.6270470000000046
 21
169.1269770000000108
 31
0.0
  0
LINE
  5
69
100
AcDbEntity
  8
0
 62
7
420
16777215
370
-1
 48
1.0
  6
BYLAYER
100
AcDbLine
 10
74.6270470000000046
 20
169.1269770000000108
 30
0.0
 11
74.6270470000000046
 21
172.1269800000000032
 31
0.0
  0
LINE
  5
6A
100
AcDbEntity
  8
0
 62
7
420
16777215
370
-1
 48
1.0
  6
BYLAYER
100
AcDbLine
 10
74.6270470000000046
 20
172.1269800000000032
 30
0.0
 11
81.627049999999997
 21
172.1269800000000032
 31
0.0
  0
LINE
  5
6B
100
AcDbEntity
  8
0
 62
7
420
16777215
370
-1
 48
1.0
  6
BYLAYER
100
AcDbLine
 10
81.627049999999997
 20
172.1269800000000032
 30
0.0
 11
81.627049999999997
 21
169.1269770000000108
 31
0.0
  0
LINE
  5
6C
100
AcDbEntity
  8
0
 62
7
420
16777215
370
-1
 48
1.0
  6
BYLAYER
100
AcDbLine
 10
81.627049999999997
 20
169.1269770000000108
 30
0.0
 11
88.6270580000000052
 21
169.1269770000000108
 31
0.0
  0
LINE
  5
6D
100
AcDbEntity
  8
0
 62
7
420
16777215
370
-1
 48
1.0
  6
BYLAYER
100
AcDbLine
 10
88.6270580000000052
 20
169.1269770000000108
 30
0.0
 11
88.6270580000000052
 21
172.1269800000000032
 31
0.0
  0
LINE
  5
6E
100
AcDbEntity
  8
0
 62
7
420
16777215
370
-1
 48
1.0
  6
BYLAYER
100
AcDbLine
 10
88.6270580000000052
 20
172.1269800000000032
 30
0.0
 11
95.6270640000000043
 21
172.1269800000000032
 31
0.0
  0
LINE
  5
6F
100
AcDbEntity
  8
0
 62
7
420
16777215
370
-1
 48
1.0
  6
BYLAYER
100
AcDbLine
 10
95.6270640000000043
 20
172.1269800000000032
 30
0.0
 11
95.6270640000000043
 21
169.1269770000000108
 31
0.0
  0
LINE
  5
70
100
AcDbEntity
  8
0
 62
7
420
16777215
370
-1
 48
1.0
  6
BYLAYER
100
AcDbLine
 10
95.6270640000000043
 20
169.1269770000000108
 30
0.0
 11
102.6270700000000033
 21
169.1269770000000108
 31
0.0
  0
LINE
  5
71
100
AcDbEntity
  8
0
 62
7
420
16777215
370
-1
 48
1.0
  6
BYLAYER
100
AcDbLine
 10
102.6270700000000033
 20
169.1269770000000108
 30
0.0
 11
102.6270700000000033
 21
172.1269800000000032
 31
0.0
  0
LINE
  5
72
100
AcDbEntity
  8
0
 62
7
420
16777215
370
-1
 48
1.0
  6
BYLAYER
100
AcDbLine
 10
102.6270700000000033
 20
172.1269800000000032
 30
0.0
 11
109.6270760000000024
 21
172.1269800000000032
 31
0.0
  0
LINE
  5
73
100
AcDbEntity
  8
0
 62
7
420
16777215
370
-1
 48
1.0
  6
BYLAYER
100
AcDbLine
 10
109.6270760000000024
 20
172.1269800000000032
 30
0.0
 11
109.6270760000000024
 21
169.1269770000000108
 31
0.0
  0
LINE
  5
74
100
AcDbEntity
  8
0
 62
7
420
16777215
370
-1
 48
1.0
  6
BYLAYER
100
AcDbLine
 10
109.6270760000000024
 20
169.1269770000000108
 30
0.0
 11
116.627081000000004
 21
169.1269770000000108
 31
0.0
  0
LINE
  5
75
100
AcDbEntity
  8
0
 62
7
420
16777215
370
-1
 48
1.0
  6
BYLAYER
100
AcDbLine
 10
116.627081000000004
 20
169.1269770000000108
 30
0.0
 11
116.627081000000004
 21
172.1269800000000032
 31
0.0
  0
LINE
  5
76
100
AcDbEntity
  8
0
 62
7
420
16777215
370
-1
 48
1.0
  6
BYLAYER
100
AcDbLine
 10
116.627081000000004
 20
172.1269800000000032
 30
0.0
 11
123.6270870000000031
 21
172.1269800000000032
 31
0.0
  0
LINE
  5
77
100
AcDbEntity
  8
0
 62
7
420
16777215
370
-1
 48
1.0
  6
BYLAYER
100
AcDbLine
 10
123.6270870000000031
 20
172.1269800000000032
 30
0.0
 11
123.6270870000000031
 21
169.1269770000000108
 31
0.0
  0
LINE
  5
78
100
AcDbEntity
  8
0
 62
7
420
16777215
370
-1
 48
1.0
  6
BYLAYER
100
AcDbLine
 10
123.6270870000000031
 20
169.1269770000000108
 30
0.0
 11
130.6270930000000021
 21
169.1269770000000108
 31
0.0
  0
LINE
  5
79
100
AcDbEntity
  8
0
 62
7
420
16777215
370
-1
 48
1.0
  6
BYLAYER
100
AcDbLine
 10
130.6270930000000021
 20
169.1269770000000108
 30
0.0
 11
130.6270930000000021
 21
172.1269800000000032
 31
0.0
  0
LINE
  5
7A
100
AcDbEntity
  8
0
 62
7
420
16777215
370
-1
 48
1.0
  6
BYLAYER
100
AcDbLine
 10
130.6270930000000021
 20
172.1269800000000032
 30
0.0
 11
137.627098999999987
 21
172.1269800000000032
 31
0.0
  0
LINE
  5
7B
100
AcDbEntity
  8
0
 62
7
420
16777215
370
-1
 48
1.0
  6
BYLAYER
100
AcDbLine
 10
137.627098999999987
 20
172.1269800000000032
 30
0.0
 11
137.627098999999987
 21
169.1269770000000108
 31
0.0
  0
LINE
  5
7C
100
AcDbEntity
  8
0
 62
7
420
16777215
370
-1
 48
1.0
  6
BYLAYER
100
AcDbLine
 10
137.627098999999987
 20
169.1269770000000108
 30
0.0
 11
144.6271020000000078
 21
169.1269770000000108
 31
0.0
  0
LINE
  5
7D
100
AcDbEntity
  8
0
 62
7
420
16777215
370
-1
 48
1.0
  6
BYLAYER
100
AcDbLine
 10
144.6271020000000078
 20
169.1269770000000108
 30
0.0
 11
144.6271020000000078
 21
172.1269800000000032
 31
0.0
  0
LINE
  5
7E
100
AcDbEntity
  8
0
 62
7
420
16777215
370
-1
 48
1.0
  6
BYLAYER
100
AcDbLine
 10
144.6271020000000078
 20
172.1269800000000032
 30
0.0
 11
151.6271069999999952
 21
172.1269800000000032
 31
0.0
  0
LINE
  5
7F
100
AcDbEntity
  8
0
 62
7
420
16777215
370
-1
 48
1.0
  6
BYLAYER
100
AcDbLine
 10
151.6271069999999952
 20
172.1269800000000032
 30
0.0
 11
151.6271069999999952
 21
169.1269770000000108
 31
0.0
  0
LINE
  5
80
100
AcDbEntity
  8
0
 62
7
420
16777215
370
-1
 48
1.0
  6
BYLAYER
100
AcDbLine
 10
151.6271069999999952
 20
169.1269770000000108
 30
0.0
 11
158.6271160000000009
 21
169.1269770000000108
 31
0.0
  0
LINE
  5
81
100
AcDbEntity
  8
0
 62
7
420
16777215
370
-1
 48
1.0
  6
BYLAYER
100
AcDbLine
 10
158.6271160000000009
 20
169.1269770000000108
 30
0.0
 11
158.6271160000000009
 21
172.1269800000000032
 31
0.0
  0
LINE
  5
82
100
AcDbEntity
  8
0
 62
7
420
16777215
370
-1
 48
1.0
  6
BYLAYER
100
AcDbLine
 10
158.6271160000000009
 20
172.1269800000000032
 30
0.0
 11
165.6271220000000142
 21
172.1269800000000032
 31
0.0
  0
LINE
  5
83
100
AcDbEntity
  8
0
 62
7
420
16777215
370
-1
 48
1.0
  6
BYLAYER
100
AcDbLine
 10
165.6271220000000142
 20
172.1269800000000032
 30
0.0
 11
165.6271220000000142
 21
169.1269770000000108
 31
0.0
  0
LINE
  5
84
100
AcDbEntity
  8
0
 62
7
420
16777215
370
-1
 48
1.0
  6
BYLAYER
100
AcDbLine
 10
165.6271220000000142
 20
169.1269770000000108
 30
0.0
 11
172.627127999999999
 21
169.1269770000000108
 31
0.0
  0
LINE
  5
85
100
AcDbEntity
  8
0
 62
7
420
16777215
370
-1
 48
1.0
  6
BYLAYER
100
AcDbLine
 10
172.627127999999999
 20
169.1269770000000108
 30
0.0
 11
172.627127999999999
 21
172.1269800000000032
 31
0.0
  0
LINE
  5
86
100
AcDbEntity
  8
0
 62
7
420
16777215
370
-1
 48
1.0
  6
BYLAYER
100
AcDbLine
 10
172.627127999999999
 20
172.1269800000000032
 30
0.0
 11
179.6271329999999864
 21
172.1269800000000032
 31
0.0
  0
LINE
  5
87
100
AcDbEntity
  8
0
 62
7
420
16777215
370
-1
 48
1.0
  6
BYLAYER
100
AcDbLine
 10
179.6271329999999864
 20
172.1269800000000032
 30
0.0
 11
179.6271329999999864
 21
169.1269770000000108
 31
0.0
  0
LINE
  5
88
100
AcDbEntity
  8
0
 62
7
420
16777215
370
-1
 48
1.0
  6
BYLAYER
100
AcDbLine
 10
179.6271329999999864
 20
169.1269770000000108
 30
0.0
 11
186.6271389999999997
 21
169.1269770000000108
 31
0.0
  0
LINE
  5
89
100
AcDbEntity
  8
0
 62
7
420
16777215
370
-1
 48
1.0
  6
BYLAYER
100
AcDbLine
 10
186.6271389999999997
 20
169.1269770000000108
 30
0.0
 11
186.6271389999999997
 21
172.1269800000000032
 31
0.0
  0
LINE
  5
8A
100
AcDbEntity
  8
0
 62
7
420
16777215
370
-1
 48
1.0
  6
BYLAYER
100
AcDbLine
 10
186.6271389999999997
 20
172.1269800000000032
 30
0.0
 11
193.6271450000000129
 21
172.1269800000000032
 31
0.0
  0
LINE
  5
8B
100
AcDbEntity
  8
0
 62
7
420
16777215
370
-1
 48
1.0
  6
BYLAYER
100
AcDbLine
 10
193.6271450000000129
 20
172.1269800000000032
 30
0.0
 11
193.6271450000000129
 21
169.1269770000000108
 31
0.0
  0
LINE
  5
8C
100
AcDbEntity
  8
0
 62
7
420
16777215
370
-1
 48
1.0
  6
BYLAYER
100
AcDbLine
 10
193.6271450000000129
 20
169.1269770000000108
 30
0.0
 11
200.6271509999999978
 21
169.1269770000000108
 31
0.0
  0
LINE
  5
8D
100
AcDbEntity
  8
0
 62
7
420
16777215
370
-1
 48
1.0
  6
BYLAYER
100
AcDbLine
 10
200.6271509999999978
 20
169.1269770000000108
 30
0.0
 11
200.6271509999999978
 21
172.1269800000000032
 31
0.0
  0
LINE
  5
8E
100
AcDbEntity
  8
0
 62
7
420
16777215
370
-1
 48
1.0
  6
BYLAYER
100
AcDbLine
 10
200.6271509999999978
 20
172.1269800000000032
 30
0.0
 11
207.6271560000000136
 21
172.1269800000000032
 31
0.0
  0
LINE
  5
8F
100
AcDbEntity
  8
0
 62
7
420
16777215
370
-1
 48
1.0
  6
BYLAYER
100
AcDbLine
 10
207.6271560000000136
 20
172.1269800000000032
 30
0.0
 11
207.6271560000000136
 21
169.1269770000000108
 31
0.0
  0
LINE
  5
90
100
AcDbEntity
  8
0
 62
7
420
16777215
370
-1
 48
1.0
  6
BYLAYER
100
AcDbLine
 10
207.6271560000000136
 20
169.1269770000000108
 30
0.0
 11
216.8771619999999984
 21
169.1269770000000108
 31
0.0
  0
LINE
  5
91
100
AcDbEntity
  8
0
 62
7
420
16777215
370
-1
 48
1.0
  6
BYLAYER
100
AcDbLine
 10
216.8771619999999984
 20
169.1269770000000108
 30
0.0
 11
216.8771619999999984
 21
172.1269800000000032
 31
0.0
  0
LINE
  5
92
100
AcDbEntity
  8
0
 62
7
420
16777215
370
-1
 48
1.0
  6
BYLAYER
100
AcDbLine
 10
216.8771619999999984
 20
172.1269800000000032
 30
0.0
 11
226.1271700000000067
 21
172.1269800000000032
 31
0.0
  0
LINE
  5
93
100
AcDbEntity
  8
0
 62
7
420
16777215
370
-1
 48
1.0
  6
BYLAYER
100
AcDbLine
 10
226.1271700000000067
 20
172.1269800000000032
 30
0.0
 11
226.1271700000000067
 21
162.876971999999995
 31
0.0
  0
LINE
  5
94
100
AcDbEntity
  8
0
 62
7
420
16777215
370
-1
 48
1.0
  6
BYLAYER
100
AcDbLine
 10
226.1271700000000067
 20
162.876971999999995
 30
0.0
 11
223.1271680000000117
 21
162.876971999999995
 31
0.0
  0
LINE
  5
95
100
AcDbEntity
  8
0
 62
7
420
16777215
370
-1
 48
1.0
  6
BYLAYER
100
AcDbLine
 10
223.1271680000000117
 20
162.876971999999995
 30
0.0
 11
223.1271680000000117
 21
153.6269650000000127
 31
0.0
  0
LINE
  5
96
100
AcDbEntity
  8
0
 62
7
420
16777215
370
-1
 48
1.0
  6
BYLAYER
100
AcDbLine
 10
223.1271680000000117
 20
153.6269650000000127
 30
0.0
 11
226.1271700000000067
 21
153.6269650000000127
 31
0.0
  0
LINE
  5
97
100
AcDbEntity
  8
0
 62
7
420
16777215
370
-1
 48
1.0
  6
BYLAYER
100
AcDbLine
 10
226.1271700000000067
 20
153.6269650000000127
 30
0.0
 11
226.1271700000000067
 21
146.6269589999999994
 31
0.0
  0
LINE
  5
98
100
AcDbEntity
  8
0
 62
7
420
16777215
370
-1
 48
1.0
  6
BYLAYER
100
AcDbLine
 10
226.1271700000000067
 20
146.6269589999999994
 30
0.0
 11
223.1271680000000117
 21
146.6269589999999994
 31
0.0
  0
LINE
  5
99
100
AcDbEntity
  8
0
 62
7
420
16777215
370
-1
 48
1.0
  6
BYLAYER
100
AcDbLine
 10
223.1271680000000117
 20
146.6269589999999994
 30
0.0
 11
223.1271680000000117
 21
139.6269519999999886
 31
0.0
  0
LINE
  5
9A
100
AcDbEntity
  8
0
 62
7
420
16777215
370
-1
 48
1.0
  6
BYLAYER
100
AcDbLine
 10
223.1271680000000117
 20
139.6269519999999886
 30
0.0
 11
226.1271700000000067
 21
139.6269519999999886
 31
0.0
  0
LINE
  5
9B
100
AcDbEntity
  8
0
 62
7
420
16777215
370
-1
 48
1.0
  6
BYLAYER
100
AcDbLine
 10
226.1271700000000067
 20
139.6269519999999886
 30
0.0
 11
226.1271700000000067
 21
132.6269460000000038
 31
0.0
  0
LINE
  5
9C
100
AcDbEntity
  8
0
 62
7
420
16777215
370
-1
 48
1.0
  6
BYLAYER
100
AcDbLine
 10
226.1271700000000067
 20
132.6269460000000038
 30
0.0
 11
223.1271680000000117
 21
132.6269460000000038
 31
0.0
  0
LINE
  5
9D
100
AcDbEntity
  8
0
 62
7
420
16777215
370
-1
 48
1.0
  6
BYLAYER
100
AcDbLine
 10
223.1271680000000117
 20
132.6269460000000038
 30
0.0
 11
223.1271680000000117
 21
125.6269429999999971
 31
0.0
  0
LINE
  5
9E
100
AcDbEntity
  8
0
 62
7
420
16777215
370
-1
 48
1.0
  6
BYLAYER
100
AcDbLine
 10
223.1271680000000117
 20
125.6269429999999971
 30
0.0
 11
226.1271700000000067
 21
125.6269429999999971
 31
0.0
  0
LINE
  5
9F
100
AcDbEntity
  8
0
 62
7
420
16777215
370
-1
 48
1.0
  6
BYLAYER
100
AcDbLine
 10
226.1271700000000067
 20
125.6269429999999971
 30
0.0
 11
226.1271700000000067
 21
118.6269340000000057
 31
0.0
  0
LINE
  5
A0
100
AcDbEntity
  8
0
 62
7
420
16777215
370
-1
 48
1.0
  6
BYLAYER
100
AcDbLine
 10
226.1271700000000067
 20
118.6269340000000057
 30
0.0
 11
223.1271680000000117
 21
118.6269340000000057
 31
0.0
  0
LINE
  5
A1
100
AcDbEntity
  8
0
 62
7
420
16777215
370
-1
 48
1.0
  6
BYLAYER
100
AcDbLine
 10
223.1271680000000117
 20
118.6269340000000057
 30
0.0
 11
223.1271680000000117
 21
111.6269290000000041
 31
0.0
  0
LINE
  5
A2
100
AcDbEntity
  8
0
 62
7
420
16777215
370
-1
 48
1.0
  6
BYLAYER
100
AcDbLine
 10
223.1271680000000117
 20
111.6269290000000041
 30
0.0
 11
226.1271700000000067
 21
111.6269290000000041
 31
0.0
  0
LINE
  5
A3
100
AcDbEntity
  8
0
 62
7
420
16777215
370
-1
 48
1.0
  6
BYLAYER
100
AcDbLine
 10
226.1271700000000067
 20
111.6269290000000041
 30
0.0
 11
226.1271700000000067
 21
104.626923000000005
 31
0.0
  0
LINE
  5
A4
100
AcDbEntity
  8
0
 62
7
420
16777215
370
-1
 48
1.0
  6
BYLAYER
100
AcDbLine
 10
226.1271700000000067
 20
104.626923000000005
 30
0.0
 11
223.1271680000000117
 21
104.626923000000005
 31
0.0
  0
LINE
  5
A5
100
AcDbEntity
  8
0
 62
7
420
16777215
370
-1
 48
1.0
  6
BYLAYER
100
AcDbLine
 10
223.1271680000000117
 20
104.626923000000005
 30
0.0
 11
223.1271680000000117
 21
95.3769170000000059
 31
0.0
  0
LINE
  5
A6
100
AcDbEntity
  8
0
 62
7
420
16777215
370
-1
 48
1.0
  6
BYLAYER
100
AcDbLine
 10
223.1271680000000117
 20
95.3769170000000059
 30
0.0
 11
226.1271700000000067
 21
95.3769170000000059
 31
0.0
  0
LINE
  5
A7
100
AcDbEntity
  8
0
 62
7
420
16777215
370
-1
 48
1.0
  6
BYLAYER
100
AcDbLine
 10
226.1271700000000067
 20
95.3769170000000059
 30
0.0
 11
226.1271700000000067
 21
86.1269089999999977
 31
0.0
  0
LINE
  5
A8
100
AcDbEntity
  8
0
 62
7
420
16777215
370
-1
 48
1.0
  6
BYLAYER
100
AcDbLine
 10
226.1271700000000067
 20
86.1269089999999977
 30
0.0
 11
216.8771619999999984
 21
86.1269089999999977
 31
0.0
  0
LINE
  5
A9
100
AcDbEntity
  8
0
 62
7
420
16777215
370
-1
 48
1.0
  6
BYLAYER
100
AcDbLine
 10
216.8771619999999984
 20
86.1269089999999977
 30
0.0
 11
216.8771619999999984
 21
89.1269120000000044
 31
0.0
  0
LINE
  5
AA
100
AcDbEntity
  8
0
 62
7
420
16777215
370
-1
 48
1.0
  6
BYLAYER
100
AcDbLine
 10
216.8771619999999984
 20
89.1269120000000044
 30
0.0
 11
207.6271560000000136
 21
89.1269120000000044
 31
0.0
  0
LINE
  5
AB
100
AcDbEntity
  8
0
 62
7
420
16777215
370
-1
 48
1.0
  6
BYLAYER
100
AcDbLine
 10
207.6271560000000136
 20
89.1269120000000044
 30
0.0
 11
207.6271560000000136
 21
86.1269089999999977
 31
0.0
  0
LINE
  5
AC
100
AcDbEntity
  8
0
 62
7
420
16777215
370
-1
 48
1.0
  6
BYLAYER
100
AcDbLine
 10
207.6271560000000136
 20
86.1269089999999977
 30
0.0
 11
200.6271509999999978
 21
86.1269089999999977
 31
0.0
  0
LINE
  5
AD
100
AcDbEntity
  8
0
 62
7
420
16777215
370
-1
 48
1.0
  6
BYLAYER
100
AcDbLine
 10
200.6271509999999978
 20
86.1269089999999977
 30
0.0
 11
200.6271509999999978
 21
89.1269120000000044
 31
0.0
  0
LINE
  5
AE
100
AcDbEntity
  8
0
 62
7
420
16777215
370
-1
 48
1.0
  6
BYLAYER
100
AcDbLine
 10
200.6271509999999978
 20
89.1269120000000044
 30
0.0
 11
193.6271450000000129
 21
89.1269120000000044
 31
0.0
  0
LINE
  5
AF
100
AcDbEntity
  8
0
 62
7
420
16777215
370
-1
 48
1.0
  6
BYLAYER
100
AcDbLine
 10
193.6271450000000129
 20
89.1269120000000044
 30
0.0
 11
193.6271450000000129
 21
86.1269089999999977
 31
0.0
  0
LINE
  5
B0
100
AcDbEntity
  8
0
 62
7
420
16777215
370
-1
 48
1.0
  6
BYLAYER
100
AcDbLine
 10
193.6271450000000129
 20
86.1269089999999977
 30
0.0
 11
186.6271389999999997
 21
86.1269089999999977
 31
0.0
  0
LINE
  5
B1
100
AcDbEntity
  8
0
 62
7
420
16777215
370
-1
 48
1.0
  6
BYLAYER
100
AcDbLine
 10
186.6271389999999997
 20
86.1269089999999977
 30
0.0
 11
186.6271389999999997
 21
89.1269120000000044
 31
0.0
  0
LINE
  5
B2
100
AcDbEntity
  8
0
 62
7
420
16777215
370
-1
 48
1.0
  6
BYLAYER
100
AcDbLine
 10
186.6271389999999997
 20
89.1269120000000044
 30
0.0
 11
179.6271329999999864
 21
89.1269120000000044
 31
0.0
  0
LINE
  5
B3
100
AcDbEntity
  8
0
 62
7
420
16777215
370
-1
 48
1.0
  6
BYLAYER
100
AcDbLine
 10
179.6271329999999864
 20
89.1269120000000044
 30
0.0
 11
179.6271329999999864
 21
86.1269089999999977
 31
0.0
  0
LINE
  5
B4
100
AcDbEntity
  8
0
 62
7
420
16777215
370
-1
 48
1.0
  6
BYLAYER
100
AcDbLine
 10
179.6271329999999864
 20
86.1269089999999977
 30
0.0
 11
172.627127999999999
 21
86.1269089999999977
 31
0.0
  0
LINE
  5
B5
100
AcDbEntity
  8
0
 62
7
420
16777215
370
-1
 48
1.0
  6
BYLAYER
100
AcDbLine
 10
172.627127999999999
 20
86.1269089999999977
 30
0.0
 11
172.627127999999999
 21
89.1269120000000044
 31
0.0
  0
LINE
  5
B6
100
AcDbEntity
  8
0
 62
7
420
16777215
370
-1
 48
1.0
  6
BYLAYER
100
AcDbLine
 10
172.627127999999999
 20
89.1269120000000044
 30
0.0
 11
165.6271220000000142
 21
89.1269120000000044
 31
0.0
  0
LINE
  5
B7
100
AcDbEntity
  8
0
 62
7
420
16777215
370
-1
 48
1.0
  6
BYLAYER
100
AcDbLine
 10
165.6271220000000142
 20
89.1269120000000044
 30
0.0
 11
165.6271220000000142
 21
86.1269089999999977
 31
0.0
  0
LINE
  5
B8
100
AcDbEntity
  8
0
 62
7
420
16777215
370
-1
 48
1.0
  6
BYLAYER
100
AcDbLine
 10
165.6271220000000142
 20
86.1269089999999977
 30
0.0
 11
158.6271160000000009
 21
86.1269089999999977
 31
0.0
  0
LINE
  5
B9
100
AcDbEntity
  8
0
 62
7
420
16777215
370
-1
 48
1.0
  6
BYLAYER
100
AcDbLine
 10
158.6271160000000009
 20
86.1269089999999977
 30
0.0
 11
158.6271160000000009
 21
89.1269120000000044
 31
0.0
  0
LINE
  5
BA
100
AcDbEntity
  8
0
 62
7
420
16777215
370
-1
 48
1.0
  6
BYLAYER
100
AcDbLine
 10
158.6271160000000009
 20
89.1269120000000044
 30
0.0
 11
151.6271069999999952
 21
89.1269120000000044
 31
0.0
  0
LINE
  5
BB
100
AcDbEntity
  8
0
 62
7
420
16777215
370
-1
 48
1.0
  6
BYLAYER
100
AcDbLine
 10
151.6271069999999952
 20
89.1269120000000044
 30
0.0
 11
151.6271069999999952
 21
86.1269089999999977
 31
0.0
  0
LINE
  5
BC
100
AcDbEntity
  8
0
 62
7
420
16777215
370
-1
 48
1.0
  6
BYLAYER
100
AcDbLine
 10
151.6271069999999952
 20
86.1269089999999977
 30
0.0
 11
144.6271020000000078
 21
86.1269089999999977
 31
0.0
  0
LINE
  5
BD
100
AcDbEntity
  8
0
 62
7
420
16777215
370
-1
 48
1.0
  6
BYLAYER
100
AcDbLine
 10
144.6271020000000078
 20
86.1269089999999977
 30
0.0
 11
144.6271020000000078
 21
89.1269120000000044
 31
0.0
  0
LINE
  5
BE
100
AcDbEntity
  8
0
 62
7
420
16777215
370
-1
 48
1.0
  6
BYLAYER
100
AcDbLine
 10
144.6271020000000078
 20
89.1269120000000044
 30
0.0
 11
137.627098999999987
 21
89.1269120000000044
 31
0.0
  0
LINE
  5
BF
100
AcDbEntity
  8
0
 62
7
420
16777215
370
-1
 48
1.0
  6
BYLAYER
100
AcDbLine
 10
137.627098999999987
 20
89.1269120000000044
 30
0.0
 11
137.627098999999987
 21
86.1269089999999977
 31
0.0
  0
LINE
  5
C0
100
AcDbEntity
  8
0
 62
7
420
16777215
370
-1
 48
1.0
  6
BYLAYER
100
AcDbLine
 10
137.627098999999987
 20
86.1269089999999977
 30
0.0
 11
130.6270930000000021
 21
86.1269089999999977
 31
0.0
  0
LINE
  5
C1
100
AcDbEntity
  8
0
 62
7
420
16777215
370
-1
 48
1.0
  6
BYLAYER
100
AcDbLine
 10
130.6270930000000021
 20
86.1269089999999977
 30
0.0
 11
130.6270930000000021
 21
89.1269120000000044
 31
0.0
  0
LINE
  5
C2
100
AcDbEntity
  8
0
 62
7
420
16777215
370
-1
 48
1.0
  6
BYLAYER
100
AcDbLine
 10
130.6270930000000021
 20
89.1269120000000044
 30
0.0
 11
123.6270870000000031
 21
89.1269120000000044
 31
0.0
  0
LINE
  5
C3
100
AcDbEntity
  8
0
 62
7
420
16777215
370
-1
 48
1.0
  6
BYLAYER
100
AcDbLine
 10
123.6270870000000031
 20
89.1269120000000044
 30
0.0
 11
123.6270870000000031
 21
86.1269089999999977
 31
0.0
  0
LINE
  5
C4
100
AcDbEntity
  8
0
 62
7
420
16777215
370
-1
 48
1.0
  6
BYLAYER
100
AcDbLine
 10
123.6270870000000031
 20
86.1269089999999977
 30
0.0
 11
116.627081000000004
 21
86.1269089999999977
 31
0.0
  0
LINE
  5
C5
100
AcDbEntity
  8
0
 62
7
420
16777215
370
-1
 48
1.0
  6
BYLAYER
100
AcDbLine
 10
116.627081000000004
 20
86.1269089999999977
 30
0.0
 11
116.627081000000004
 21
89.1269120000000044
 31
0.0
  0
LINE
  5
C6
100
AcDbEntity
  8
0
 62
7
420
16777215
370
-1
 48
1.0
  6
BYLAYER
100
AcDbLine
 10
116.627081000000004
 20
89.1269120000000044
 30
0.0
 11
109.6270760000000024
 21
89.1269120000000044
 31
0.0
  0
LINE
  5
C7
100
AcDbEntity
  8
0
 62
7
420
16777215
370
-1
 48
1.0
  6
BYLAYER
100
AcDbLine
 10
109.6270760000000024
 20
89.1269120000000044
 30
0.0
 11
109.6270760000000024
 21
86.1269089999999977
 31
0.0
  0
LINE
  5
C8
100
AcDbEntity
  8
0
 62
7
420
16777215
370
-1
 48
1.0
  6
BYLAYER
100
AcDbLine
 10
109.6270760000000024
 20
86.1269089999999977
 30
0.0
 11
102.6270700000000033
 21
86.1269089999999977
 31
0.0
  0
LINE
  5
C9
100
AcDbEntity
  8
0
 62
7
420
16777215
370
-1
 48
1.0
  6
BYLAYER
100
AcDbLine
 10
102.6270700000000033
 20
86.1269089999999977
 30
0.0
 11
102.6270700000000033
 21
89.1269120000000044
 31
0.0
  0
LINE
  5
CA
100
AcDbEntity
  8
0
 62
7
420
16777215
370
-1
 48
1.0
  6
BYLAYER
100
AcDbLine
 10
102.6270700000000033
 20
89.1269120000000044
 30
0.0
 11
95.6270640000000043
 21
89.1269120000000044
 31
0.0
  0
LINE
  5
CB
100
AcDbEntity
  8
0
 62
7
420
16777215
370
-1
 48
1.0
  6
BYLAYER
100
AcDbLine
 10
95.6270640000000043
 20
89.1269120000000044
 30
0.0
 11
95.6270640000000043
 21
86.1269089999999977
 31
0.0
  0
LINE
  5
CC
100
AcDbEntity
  8
0
 62
7
420
16777215
370
-1
 48
1.0
  6
BYLAYER
100
AcDbLine
 10
95.6270640000000043
 20
86.1269089999999977
 30
0.0
 11
88.6270580000000052
 21
86.1269089999999977
 31
0.0
  0
LINE
  5
CD
100
AcDbEntity
  8
0
 62
7
420
16777215
370
-1
 48
1.0
  6
BYLAYER
100
AcDbLine
 10
88.6270580000000052
 20
86.1269089999999977
 30
0.0
 11
88.6270580000000052
 21
89.1269120000000044
 31
0.0
  0
LINE
  5
CE
100
AcDbEntity
  8
0
 62
7
420
16777215
370
-1
 48
1.0
  6
BYLAYER
100
AcDbLine
 10
88.6270580000000052
 20
89.1269120000000044
 30
0.0
 11
81.627049999999997
 21
89.1269120000000044
 31
0.0
  0
LINE
  5
CF
100
AcDbEntity
  8
0
 62
7
420
16777215
370
-1
 48
1.0
  6
BYLAYER
100
AcDbLine
 10
81.627049999999997
 20
89.1269120000000044
 30
0.0
 11
81.627049999999997
 21
86.1269089999999977
 31
0.0
  0
LINE
  5
D0
100
AcDbEntity
  8
0
 62
7
420
16777215
370
-1
 48
1.0
  6
BYLAYER
100
AcDbLine
 10
81.627049999999997
 20
86.1269089999999977
 30
0.0
 11
74.6270470000000046
 21
86.1269089999999977
 31
0.0
  0
LINE
  5
D1
100
AcDbEntity
  8
0
 62
7
420
16777215
370
-1
 48
1.0
  6
BYLAYER
100
AcDbLine
 10
74.6270470000000046
 20
86.1269089999999977
 30
0.0
 11
74.6270470000000046
 21
89.1269120000000044
 31
0.0
  0
LINE
  5
D2
100
AcDbEntity
  8
0
 62
7
420
16777215
370
-1
 48
1.0
  6
BYLAYER
100
AcDbLine
 10
74.6270470000000046
 20
89.1269120000000044
 30
0.0
 11
67.6270410000000055
 21
89.1269120000000044
 31
0.0
  0
LINE
  5
D3
100
AcDbEntity
  8
0
 62
7
420
16777215
370
-1
 48
1.0
  6
BYLAYER
100
AcDbLine
 10
67.6270410000000055
 20
89.1269120000000044
 30
0.0
 11
67.6270410000000055
 21
86.1269089999999977
 31
0.0
  0
LINE
  5
D4
100
AcDbEntity
  8
0
 62
7
420
16777215
370
-1
 48
1.0
  6
BYLAYER
100
AcDbLine
 10
67.6270410000000055
 20
86.1269089999999977
 30
0.0
 11
60.6270349999999993
 21
86.1269089999999977
 31
0.0
  0
LINE
  5
D5
100
AcDbEntity
  8
0
 62
7
420
16777215
370
-1
 48
1.0
  6
BYLAYER
100
AcDbLine
 10
60.6270349999999993
 20
86.1269089999999977
 30
0.0
 11
60.6270349999999993
 21
89.1269120000000044
 31
0.0
  0
LINE
  5
D6
100
AcDbEntity
  8
0
 62
7
420
16777215
370
-1
 48
1.0
  6
BYLAYER
100
AcDbLine
 10
60.6270349999999993
 20
89.1269120000000044
 30
0.0
 11
53.6270299999999978
 21
89.1269120000000044
 31
0.0
  0
LINE
  5
D7
100
AcDbEntity
  8
0
 62
7
420
16777215
370
-1
 48
1.0
  6
BYLAYER
100
AcDbLine
 10
53.6270299999999978
 20
89.1269120000000044
 30
0.0
 11
53.6270299999999978
 21
86.1269089999999977
 31
0.0
  0
LINE
  5
D8
100
AcDbEntity
  8
0
 62
7
420
16777215
370
-1
 48
1.0
  6
BYLAYER
100
AcDbLine
 10
53.6270299999999978
 20
86.1269089999999977
 30
0.0
 11
46.6270209999999992
 21
86.1269089999999977
 31
0.0
  0
LINE
  5
D9
100
AcDbEntity
  8
0
 62
7
420
16777215
370
-1
 48
1.0
  6
BYLAYER
100
AcDbLine
 10
46.6270209999999992
 20
86.1269089999999977
 30
0.0
 11
46.6270209999999992
 21
89.1269120000000044
 31
0.0
  0
LINE
  5
DA
100
AcDbEntity
  8
0
 62
7
420
16777215
370
-1
 48
1.0
  6
BYLAYER
100
AcDbLine
 10
46.6270209999999992
 20
89.1269120000000044
 30
0.0
 11
39.6270179999999996
 21
89.1269120000000044
 31
0.0
  0
LINE
  5
DB
100
AcDbEntity
  8
0
 62
7
420
16777215
370
-1
 48
1.0
  6
BYLAYER
100
AcDbLine
 10
39.6270179999999996
 20
89.1269120000000044
 30
0.0
 11
39.6270179999999996
 21
86.1269089999999977
 31
0.0
  0
LINE
  5
DC
100
AcDbEntity
  8
0
 62
7
420
16777215
370
-1
 48
1.0
  6
BYLAYER
100
AcDbLine
 10
39.6270179999999996
 20
86.1269089999999977
 30
0.0
 11
32.6270120000000006
 21
86.1269089999999977
 31
0.0
  0
LINE
  5
DD
100
AcDbEntity
  8
0
 62
7
420
16777215
370
-1
 48
1.0
  6
BYLAYER
100
AcDbLine
 10
32.6270120000000006
 20
86.1269089999999977
 30
0.0
 11
32.6270120000000006
 21
89.1269120000000044
 31
0.0
  0
LINE
  5
DE
100
AcDbEntity
  8
0
 62
7
420
16777215
370
-1
 48
1.0
  6
BYLAYER
100
AcDbLine
 10
32.6270120000000006
 20
89.1269120000000044
 30
0.0
 11
25.6270050000000005
 21
89.1269120000000044
 31
0.0
  0
LINE
  5
DF
100
AcDbEntity
  8
0
 62
7
420
16777215
370
-1
 48
1.0
  6
BYLAYER
100
AcDbLine
 10
25.6270050000000005
 20
89.1269120000000044
 30
0.0
 11
25.6270050000000005
 21
86.1269089999999977
 31
0.0
  0
LINE
  5
E0
100
AcDbEntity
  8
0
 62
7
420
16777215
370
-1
 48
1.0
  6
BYLAYER
100
AcDbLine
 10
25.6270050000000005
 20
86.1269089999999977
 30
0.0
 11
18.6269999999999989
 21
86.1269089999999977
 31
0.0
  0
LINE
  5
E1
100
AcDbEntity
  8
0
 62
7
420
16777215
370
-1
 48
1.0
  6
BYLAYER
100
AcDbLine
 10
18.6269999999999989
 20
86.1269089999999977
 30
0.0
 11
18.6269999999999989
 21
89.1269120000000044
 31
0.0
  0
LINE
  5
E2
100
AcDbEntity
  8
0
 62
7
420
16777215
370
-1
 48
1.0
  6
BYLAYER
100
AcDbLine
 10
18.6269999999999989
 20
89.1269120000000044
 30
0.0
 11
9.3769919999999995
 21
89.1269120000000044
 31
0.0
  0
LINE
  5
E3
100
AcDbEntity
  8
0
 62
7
420
16777215
370
-1
 48
1.0
  6
BYLAYER
100
AcDbLine
 10
9.3769919999999995
 20
89.1269120000000044
 30
0.0
 11
9.3769919999999995
 21
86.1269089999999977
 31
0.0
  0
LINE
  5
E4
100
AcDbEntity
  8
0
 62
7
420
16777215
370
-1
 48
1.0
  6
BYLAYER
100
AcDbLine
 10
9.3769919999999995
 20
86.1269089999999977
 30
0.0
 11
0.126984
 21
86.1269089999999977
 31
0.0
  0
LINE
  5
E5
100
AcDbEntity
  8
0
 62
7
420
16777215
370
-1
 48
1.0
  6
BYLAYER
100
AcDbLine
 10
0.126984
 20
86.1269089999999977
 30
0.0
 11
0.126984
 21
95.3769170000000059
 31
0.0
  0
LINE
  5
E6
100
AcDbEntity
  8
0
 62
7
420
16777215
370
-1
 48
1.0
  6
BYLAYER
100
AcDbLine
 10
0.126984
 20
95.3769170000000059
 30
0.0
 11
3.1269870000000002
 21
95.3769170000000059
 31
0.0
  0
LINE
  5
E7
100
AcDbEntity
  8
0
 62
7
420
16777215
370
-1
 48
1.0
  6
BYLAYER
100
AcDbLine
 10
3.1269870000000002
 20
95.3769170000000059
 30
0.0
 11
3.1269870000000002
 21
104.626923000000005
 31
0.0
  0
LINE
  5
E8
100
AcDbEntity
  8
0
 62
7
420
16777215
370
-1
 48
1.0
  6
BYLAYER
100
AcDbLine
 10
3.1269870000000002
 20
104.626923000000005
 30
0.0
 11
0.126984
 21
104.626923000000005
 31
0.0
  0
LINE
  5
E9
100
AcDbEntity
  8
0
 62
7
420
16777215
370
-1
 48
1.0
  6
BYLAYER
100
AcDbLine
 10
0.126984
 20
104.626923000000005
 30
0.0
 11
0.126984
 21
111.6269290000000041
 31
0.0
  0
LINE
  5
EA
100
AcDbEntity
  8
0
 62
7
420
16777215
370
-1
 48
1.0
  6
BYLAYER
100
AcDbLine
 10
0.126984
 20
111.6269290000000041
 30
0.0
 11
3.1269870000000002
 21
111.6269290000000041
 31
0.0
  0
LINE
  5
EB
100
AcDbEntity
  8
0
 62
7
420
16777215
370
-1
 48
1.0
  6
BYLAYER
100
AcDbLine
 10
3.1269870000000002
 20
111.6269290000000041
 30
0.0
 11
3.1269870000000002
 21
118.6269340000000057
 31
0.0
  0
LINE
  5
EC
100
AcDbEntity
  8
0
 62
7
420
16777215
370
-1
 48
1.0
  6
BYLAYER
100
AcDbLine
 10
3.1269870000000002
 20
118.6269340000000057
 30
0.0
 11
0.126984
 21
118.6269340000000057
 31
0.0
  0
LINE
  5
ED
100
AcDbEntity
  8
0
 62
7
420
16777215
370
-1
 48
1.0
  6
BYLAYER
100
AcDbLine
 10
0.126984
 20
118.6269340000000057
 30
0.0
 11
0.126984
 21
125.6269429999999971
 31
0.0
  0
LINE
  5
EE
100
AcDbEntity
  8
0
 62
7
420
16777215
370
-1
 48
1.0
  6
BYLAYER
100
AcDbLine
 10
0.126984
 20
125.6269429999999971
 30
0.0
 11
3.1269870000000002
 21
125.6269429999999971
 31
0.0
  0
LINE
  5
EF
100
AcDbEntity
  8
0
 62
7
420
16777215
370
-1
 48
1.0
  6
BYLAYER
100
AcDbLine
 10
3.1269870000000002
 20
125.6269429999999971
 30
0.0
 11
3.1269870000000002
 21
132.6269460000000038
 31
0.0
  0
LINE
  5
F0
100
AcDbEntity
  8
0
 62
7
420
16777215
370
-1
 48
1.0
  6
BYLAYER
100
AcDbLine
 10
3.1269870000000002
 20
132.6269460000000038
 30
0.0
 11
0.126984
 21
132.6269460000000038
 31
0.0
  0
LINE
  5
F1
100
AcDbEntity
  8
0
 62
7
420
16777215
370
-1
 48
1.0
  6
BYLAYER
100
AcDbLine
 10
0.126984
 20
132.6269460000000038
 30
0.0
 11
0.126984
 21
139.6269519999999886
 31
0.0
  0
LINE
  5
F2
100
AcDbEntity
  8
0
 62
7
420
16777215
370
-1
 48
1.0
  6
BYLAYER
100
AcDbLine
 10
0.126984
 20
139.6269519999999886
 30
0.0
 11
3.1269870000000002
 21
139.6269519999999886
 31
0.0
  0
LINE
  5
F3
100
AcDbEntity
  8
0
 62
7
420
16777215
370
-1
 48
1.0
  6
BYLAYER
100
AcDbLine
 10
3.1269870000000002
 20
139.6269519999999886
 30
0.0
 11
3.1269870000000002
 21
146.6269589999999994
 31
0.0
  0
LINE
  5
F4
100
AcDbEntity
  8
0
 62
7
420
16777215
370
-1
 48
1.0
  6
BYLAYER
100
AcDbLine
 10
3.1269870000000002
 20
146.6269589999999994
 30
0.0
 11
0.126984
 21
146.6269589999999994
 31
0.0
  0
LINE
  5
F5
100
AcDbEntity
  8
0
 62
7
420
16777215
370
-1
 48
1.0
  6
BYLAYER
100
AcDbLine
 10
0.126984
 20
146.6269589999999994
 30
0.0
 11
0.126984
 21
153.6269650000000127
 31
0.0
  0
LINE
  5
F6
100
AcDbEntity
  8
0
 62
7
420
16777215
370
-1
 48
1.0
  6
BYLAYER
100
AcDbLine
 10
0.126984
 20
153.6269650000000127
 30
0.0
 11
3.1269870000000002
 21
153.6269650000000127
 31
0.0
  0
LINE
  5
F7
100
AcDbEntity
  8
0
 62
7
420
16777215
370
-1
 48
1.0
  6
BYLAYER
100
AcDbLine
 10
3.1269870000000002
 20
153.6269650000000127
 30
0.0
 11
3.1269870000000002
 21
162.876971999999995
 31
0.0
  0
LINE
  5
F8
100
AcDbEntity
  8
0
 62
7
420
16777215
370
-1
 48
1.0
  6
BYLAYER
100
AcDbLine
 10
3.1269870000000002
 20
162.876971999999995
 30
0.0
 11
0.126984
 21
162.876971999999995
 31
0.0
  0
LINE
  5
F9
100
AcDbEntity
  8
0
 62
7
420
16777215
370
-1
 48
1.0
  6
BYLAYER
100
AcDbLine
 10
0.126984
 20
162.876971999999995
 30
0.0
 11
0.126984
 21
172.1269800000000032
 31
0.0
  0
LINE
  5
FA
100
AcDbEntity
  8
0
 62
7
420
16777215
370
-1
 48
1.0
  6
BYLAYER
100
AcDbLine
 10
0.126984
 20
172.1269800000000032
 30
0.0
 11
9.3769919999999995
 21
172.1269800000000032
 31
0.0
  0
LINE
  5
FB
100
AcDbEntity
  8
0
 62
7
420
16777215
370
-1
 48
1.0
  6
BYLAYER
100
AcDbLine
 10
9.3769919999999995
 20
172.1269800000000032
 30
0.0
 11
9.3769919999999995
 21
169.1269770000000108
 31
0.0
  0
LINE
  5
FC
100
AcDbEntity
  8
0
 62
7
420
16777215
370
-1
 48
1.0
  6
BYLAYER
100
AcDbLine
 10
9.3769919999999995
 20
169.1269770000000108
 30
0.0
 11
18.6269999999999989
 21
169.1269770000000108
 31
0.0
  0
SPLINE
  5
FD
100
AcDbEntity
  8
0
 62
7
420
16777215
370
-1
 48
1.0
  6
BYLAYER
100
AcDbSpline
 70
8
 71
3
 72
8
 73
4
 74
0
 40
0.0
 40
0.0
 40
0.0
 40
0.0
 40
1.0
 40
1.0
 40
1.0
 40
1.0
 10
51.1133000000000308
 20
138.6565027499999871
 30
0.0
 10
45.0286270000000286
 20
138.6565027499999871
 30
0.0
 10
40.1624080000000276
 20
143.4020717499999762
 30
0.0
 10
40.1624080000000276
 20
149.5269607500000006
 30
0.0
  0
SPLINE
  5
FE
100
AcDbEntity
  8
0
 62
7
420
16777215
370
-1
 48
1.0
  6
BYLAYER
100
AcDbSpline
 70
8
 71
3
 72
8
 73
4
 74
0
 40
0.0
 40
0.0
 40
0.0
 40
0.0
 40
1.0
 40
1.0
 40
1.0
 40
1.0
 10
40.1624080000000276
 20
150.2269607499999893
 30
0.0
 10
40.1624080000000276
 20
156.3518497499999853
 30
0.0
 10
45.0286270000000286
 20
161.0572037499999851
 30
0.0
 10
51.1133000000000237
 20
161.0572037499999851
 30
0.0
  0
SPLINE
  5
FF
100
AcDbEntity
  8
0
 62
7
420
16777215
370
-1
 48
1.0
  6
BYLAYER
100
AcDbSpline
 70
8
 71
3
 72
8
 73
4
 74
0
 40
0.0
 40
0.0
 40
0.0
 40
0.0
 40
1.0
 40
1.0
 40
1.0
 40
1.0
 10
51.8133000000000266
 20
161.0572037499999851
 30
0.0
 10
57.8979720000000313
 20
161.0572037499999851
 30
0.0
 10
62.7641940000000318
 20
156.3518497499999853
 30
0.0
 10
62.7641940000000318
 20
150.2269607499999893
 30
0.0
  0
SPLINE
  5
100
100
AcDbEntity
  8
0
 62
7
420
16777215
370
-1
 48
1.0
  6
BYLAYER
100
AcDbSpline
 70
8
 71
3
 72
8
 73
4
 74
0
 40
0.0
 40
0.0
 40
0.0
 40
0.0
 40
1.0
 40
1.0
 40
1.0
 40
1.0
 10
62.7641940000000318
 20
149.5269607500000006
 30
0.0
 10
62.7641940000000318
 20
143.4020717499999762
 30
0.0
 10
57.8979720000000313
 20
138.6565027499999871
 30
0.0
 10
51.8133000000000337
 20
138.6565027499999871
 30
0.0
  0
SPLINE
  5
101
100
AcDbEntity
  8
0
 62
7
420
16777215
370
-1
 48
1.0
  6
BYLAYER
100
AcDbSpline
 70
8
 71
3
 72
8
 73
4
 74
0
 40
0.0
 40
0.0
 40
0.0
 40
0.0
 40
1.0
 40
1.0
 40
1.0
 40
1.0
 10
51.8133000000000337
 20
139.3804027499999734
 30
0.0
 10
57.4958050000000256
 20
139.3804027499999734
 30
0.0
 10
62.0402910000000318
 20
143.8042387499999677
 30
0.0
 10
62.0402910000000318
 20
149.5269607500000006
 30
0.0
  0
SPLINE
  5
102
100
AcDbEntity
  8
0
 62
7
420
16777215
370
-1
 48
1.0
  6
BYLAYER
100
AcDbSpline
 70
8
 71
3
 72
8
 73
4
 74
0
 40
0.0
 40
0.0
 40
0.0
 40
0.0
 40
1.0
 40
1.0
 40
1.0
 40
1.0
 10
62.0402910000000318
 20
150.2269607499999893
 30
0.0
 10
62.0402910000000318
 20
155.9496827499999938
 30
0.0
 10
57.4958050000000256
 20
160.333302749999973
 30
0.0
 10
51.8133000000000266
 20
160.333302749999973
 30
0.0
  0
SPLINE
  5
103
100
AcDbEntity
  8
0
 62
7
420
16777215
370
-1
 48
1.0
  6
BYLAYER
100
AcDbSpline
 70
8
 71
3
 72
8
 73
4
 74
0
 40
0.0
 40
0.0
 40
0.0
 40
0.0
 40
1.0
 40
1.0
 40
1.0
 40
1.0
 10
51.1133000000000237
 20
160.333302749999973
 30
0.0
 10
45.4307940000000272
 20
160.333302749999973
 30
0.0
 10
40.8863080000000281
 20
155.9496827499999938
 30
0.0
 10
40.8863080000000281
 20
150.2269607499999893
 30
0.0
  0
SPLINE
  5
104
100
AcDbEntity
  8
0
 62
7
420
16777215
370
-1
 48
1.0
  6
BYLAYER
100
AcDbSpline
 70
8
 71
3
 72
8
 73
4
 74
0
 40
0.0
 40
0.0
 40
0.0
 40
0.0
 40
1.0
 40
1.0
 40
1.0
 40
1.0
 10
40.8863080000000281
 20
149.5269607500000006
 30
0.0
 10
40.8863080000000281
 20
143.8042387499999677
 30
0.0
 10
45.4307940000000272
 20
139.3804027499999734
 30
0.0
 10
51.1133000000000308
 20
139.3804027499999734
 30
0.0
  0
SPLINE
  5
105
100
AcDbEntity
  8
0
 62
7
420
16777215
370
-1
 48
1.0
  6
BYLAYER
100
AcDbSpline
 70
8
 71
3
 72
8
 73
4
 74
0
 40
0.0
 40
0.0
 40
0.0
 40
0.0
 40
1.0
 40
1.0
 40
1.0
 40
1.0
 10
51.8133000000000337
 20
135.8413327499999923
 30
0.0
 10
59.3457750000000317
 20
135.8413327499999923
 30
0.0
 10
66.142397000000031
 20
141.6325357499999882
 30
0.0
 10
66.1423970000000168
 20
149.5269607500000006
 30
0.0
  0
SPLINE
  5
106
100
AcDbEntity
  8
0
 62
7
420
16777215
370
-1
 48
1.0
  6
BYLAYER
100
AcDbSpline
 70
8
 71
3
 72
8
 73
4
 74
0
 40
0.0
 40
0.0
 40
0.0
 40
0.0
 40
1.0
 40
1.0
 40
1.0
 40
1.0
 10
66.1423970000000168
 20
150.2269607499999893
 30
0.0
 10
66.142397000000031
 20
158.1213847499999758
 30
0.0
 10
59.3457750000000317
 20
163.8723727499999825
 30
0.0
 10
51.8133000000000266
 20
163.8723727499999825
 30
0.0
  0
SPLINE
  5
107
100
AcDbEntity
  8
0
 62
7
420
16777215
370
-1
 48
1.0
  6
BYLAYER
100
AcDbSpline
 70
8
 71
3
 72
8
 73
4
 74
0
 40
0.0
 40
0.0
 40
0.0
 40
0.0
 40
1.0
 40
1.0
 40
1.0
 40
1.0
 10
51.1133000000000237
 20
163.8723727499999825
 30
0.0
 10
43.5808270000000277
 20
163.8723727499999825
 30
0.0
 10
36.7842050000000285
 20
158.1213847499999758
 30
0.0
 10
36.7842050000000285
 20
150.2269607499999893
 30
0.0
  0
SPLINE
  5
108
100
AcDbEntity
  8
0
 62
7
420
16777215
370
-1
 48
1.0
  6
BYLAYER
100
AcDbSpline
 70
8
 71
3
 72
8
 73
4
 74
0
 40
0.0
 40
0.0
 40
0.0
 40
0.0
 40
1.0
 40
1.0
 40
1.0
 40
1.0
 10
36.7842050000000285
 20
149.5269607500000006
 30
0.0
 10
36.7842050000000285
 20
141.6325357499999882
 30
0.0
 10
43.5808270000000277
 20
135.8413327499999923
 30
0.0
 10
51.1133000000000308
 20
135.8413327499999923
 30
0.0
  0
SPLINE
  5
109
100
AcDbEntity
  8
0
 62
7
420
16777215
370
-1
 48
1.0
  6
BYLAYER
100
AcDbSpline
 70
8
 71
3
 72
8
 73
4
 74
0
 40
0.0
 40
0.0
 40
0.0
 40
0.0
 40
1.0
 40
1.0
 40
1.0
 40
1.0
 10
51.1133000000000308
 20
142.1955717499999707
 30
0.0
 10
46.8785970000000276
 20
142.1955717499999707
 30
0.0
 10
44.2645110000000273
 20
145.5737737499999866
 30
0.0
 10
44.2645110000000273
 20
149.5269607500000006
 30
0.0
  0
SPLINE
  5
10A
100
AcDbEntity
  8
0
 62
7
420
16777215
370
-1
 48
1.0
  6
BYLAYER
100
AcDbSpline
 70
8
 71
3
 72
8
 73
4
 74
0
 40
0.0
 40
0.0
 40
0.0
 40
0.0
 40
1.0
 40
1.0
 40
1.0
 40
1.0
 10
44.2645110000000273
 20
150.2269607499999893
 30
0.0
 10
44.2645110000000273
 20
154.1801477499999748
 30
0.0
 10
46.8785970000000276
 20
157.5181337499999756
 30
0.0
 10
51.1133000000000237
 20
157.5181337499999756
 30
0.0
  0
SPLINE
  5
10B
100
AcDbEntity
  8
0
 62
7
420
16777215
370
-1
 48
1.0
  6
BYLAYER
100
AcDbSpline
 70
8
 71
3
 72
8
 73
4
 74
0
 40
0.0
 40
0.0
 40
0.0
 40
0.0
 40
1.0
 40
1.0
 40
1.0
 40
1.0
 10
51.8133000000000266
 20
157.5181337499999472
 30
0.0
 10
56.0480050000000318
 20
157.5181337499999756
 30
0.0
 10
58.6620890000000301
 20
154.1801477499999748
 30
0.0
 10
58.662089000000023
 20
150.2269607499999893
 30
0.0
  0
SPLINE
  5
10C
100
AcDbEntity
  8
0
 62
7
420
16777215
370
-1
 48
1.0
  6
BYLAYER
100
AcDbSpline
 70
8
 71
3
 72
8
 73
4
 74
0
 40
0.0
 40
0.0
 40
0.0
 40
0.0
 40
1.0
 40
1.0
 40
1.0
 40
1.0
 10
58.6620880000000469
 20
149.5269607500000006
 30
0.0
 10
59.0120890000000387
 20
145.5737737499999866
 30
0.0
 10
56.3980050000000404
 20
142.1955717499999707
 30
0.0
 10
51.8133000000000337
 20
142.1955717499999707
 30
0.0
  0
SPLINE
  5
10D
100
AcDbEntity
  8
0
 62
7
420
16777215
370
-1
 48
1.0
  6
BYLAYER
100
AcDbSpline
 70
8
 71
3
 72
8
 73
4
 74
0
 40
0.0
 40
0.0
 40
0.0
 40
0.0
 40
1.0
 40
1.0
 40
1.0
 40
1.0
 10
81.1130610000000303
 20
135.8011167499999772
 30
0.0
 10
87.9499000000000279
 20
135.8011167499999772
 30
0.0
 10
92.9769890000000316
 20
139.4206187499999885
 30
0.0
 10
92.9769890000000316
 20
146.7802747499999896
 30
0.0
  0
LINE
  5
10E
100
AcDbEntity
  8
0
 62
7
420
16777215
370
-1
 48
1.0
  6
BYLAYER
100
AcDbLine
 10
92.9769890000000316
 20
146.7802747499999896
 30
0.0
 11
92.9769890000000316
 21
163.5506387499999903
 31
0.0
  0
LINE
  5
10F
100
AcDbEntity
  8
0
 62
7
420
16777215
370
-1
 48
1.0
  6
BYLAYER
100
AcDbLine
 10
92.9769890000000316
 20
163.5506387499999903
 30
0.0
 11
89.6792200000000292
 21
163.5506387499999903
 31
0.0
  0
LINE
  5
110
100
AcDbEntity
  8
0
 62
7
420
16777215
370
-1
 48
1.0
  6
BYLAYER
100
AcDbLine
 10
89.6792200000000292
 20
163.5506387499999903
 30
0.0
 11
89.6792200000000292
 21
146.8204917499999738
 31
0.0
  0
SPLINE
  5
111
100
AcDbEntity
  8
0
 62
7
420
16777215
370
-1
 48
1.0
  6
BYLAYER
100
AcDbSpline
 70
8
 71
3
 72
8
 73
4
 74
0
 40
0.0
 40
0.0
 40
0.0
 40
0.0
 40
1.0
 40
1.0
 40
1.0
 40
1.0
 10
89.6792200000000292
 20
146.8204917499999738
 30
0.0
 10
89.6792200000000292
 20
141.3912357499999928
 30
0.0
 10
86.3010170000000301
 20
138.6565027499999871
 30
0.0
 10
81.1130610000000303
 20
138.6565027499999871
 30
0.0
  0
SPLINE
  5
112
100
AcDbEntity
  8
0
 62
7
420
16777215
370
-1
 48
1.0
  6
BYLAYER
100
AcDbSpline
 70
8
 71
3
 72
8
 73
4
 74
0
 40
0.0
 40
0.0
 40
0.0
 40
0.0
 40
1.0
 40
1.0
 40
1.0
 40
1.0
 10
81.1130610000000303
 20
138.6565027499999871
 30
0.0
 10
75.9653250000000355
 20
138.6565027499999871
 30
0.0
 10
72.5469050000000237
 20
141.3912357499999928
 30
0.0
 10
72.5469050000000237
 20
146.8204917499999738
 30
0.0
  0
LINE
  5
113
100
AcDbEntity
  8
0
 62
7
420
16777215
370
-1
 48
1.0
  6
BYLAYER
100
AcDbLine
 10
72.5469050000000237
 20
146.8204917499999738
 30
0.0
 11
72.5469050000000237
 21
163.5506387499999903
 31
0.0
  0
LINE
  5
114
100
AcDbEntity
  8
0
 62
7
420
16777215
370
-1
 48
1.0
  6
BYLAYER
100
AcDbLine
 10
72.5469050000000237
 20
163.5506387499999903
 30
0.0
 11
69.2491360000000213
 21
163.5506387499999903
 31
0.0
  0
LINE
  5
115
100
AcDbEntity
  8
0
 62
7
420
16777215
370
-1
 48
1.0
  6
BYLAYER
100
AcDbLine
 10
69.2491360000000213
 20
163.5506387499999903
 30
0.0
 11
69.2491360000000213
 21
146.7802747499999896
 31
0.0
  0
SPLINE
  5
116
100
AcDbEntity
  8
0
 62
7
420
16777215
370
-1
 48
1.0
  6
BYLAYER
100
AcDbSpline
 70
8
 71
3
 72
8
 73
4
 74
0
 40
0.0
 40
0.0
 40
0.0
 40
0.0
 40
1.0
 40
1.0
 40
1.0
 40
1.0
 10
69.2491360000000213
 20
146.7802747499999896
 30
0.0
 10
69.2491360000000213
 20
139.4206187499999885
 30
0.0
 10
74.2762220000000326
 20
135.8011167499999772
 30
0.0
 10
81.1130610000000303
 20
135.8011167499999772
 30
0.0
  0
LINE
  5
117
100
AcDbEntity
  8
0
 62
7
420
16777215
370
-1
 48
1.0
  6
BYLAYER
100
AcDbLine
 10
81.1130610000000303
 20
135.8011167499999772
 30
0.0
 11
81.1130610000000303
 21
135.8011167499999772
 31
0.0
  0
SPLINE
  5
118
100
AcDbEntity
  8
0
 62
7
420
16777215
370
-1
 48
1.0
  6
BYLAYER
100
AcDbSpline
 70
8
 71
3
 72
8
 73
4
 74
0
 40
0.0
 40
0.0
 40
0.0
 40
0.0
 40
1.0
 40
1.0
 40
1.0
 40
1.0
 10
81.1130610000000303
 20
139.3804027499999734
 30
0.0
 10
85.8988500000000244
 20
139.3804027499999734
 30
0.0
 10
88.9553200000000288
 20
141.873838749999976
 30
0.0
 10
88.9553200000000288
 20
146.8204917499999738
 30
0.0
  0
LINE
  5
119
100
AcDbEntity
  8
0
 62
7
420
16777215
370
-1
 48
1.0
  6
BYLAYER
100
AcDbLine
 10
88.9553200000000288
 20
146.8204917499999738
 30
0.0
 11
88.9553200000000288
 21
163.5506387499999903
 31
0.0
  0
LINE
  5
11A
100
AcDbEntity
  8
0
 62
7
420
16777215
370
-1
 48
1.0
  6
BYLAYER
100
AcDbLine
 10
88.9553200000000288
 20
163.5506387499999903
 30
0.0
 11
85.6575500000000289
 21
163.5506387499999903
 31
0.0
  0
LINE
  5
11B
100
AcDbEntity
  8
0
 62
7
420
16777215
370
-1
 48
1.0
  6
BYLAYER
100
AcDbLine
 10
85.6575500000000289
 20
163.5506387499999903
 30
0.0
 11
85.6575500000000289
 21
146.8607087499999864
 31
0.0
  0
SPLINE
  5
11C
100
AcDbEntity
  8
0
 62
7
420
16777215
370
-1
 48
1.0
  6
BYLAYER
100
AcDbSpline
 70
8
 71
3
 72
8
 73
4
 74
0
 40
0.0
 40
0.0
 40
0.0
 40
0.0
 40
1.0
 40
1.0
 40
1.0
 40
1.0
 10
85.6575500000000289
 20
146.8607087499999864
 30
0.0
 10
85.6575500000000289
 20
143.8846727499999929
 30
0.0
 10
84.2097470000000214
 20
142.1955717499999707
 30
0.0
 10
81.1130610000000303
 20
142.1955717499999707
 30
0.0
  0
SPLINE
  5
11D
100
AcDbEntity
  8
0
 62
7
420
16777215
370
-1
 48
1.0
  6
BYLAYER
100
AcDbSpline
 70
8
 71
3
 72
8
 73
4
 74
0
 40
0.0
 40
0.0
 40
0.0
 40
0.0
 40
1.0
 40
1.0
 40
1.0
 40
1.0
 10
81.1130610000000303
 20
142.1955717499999707
 30
0.0
 10
78.0163750000000249
 20
142.1955717499999707
 30
0.0
 10
76.568575000000024
 20
143.8846727499999929
 30
0.0
 10
76.568575000000024
 20
146.8607087499999864
 30
0.0
  0
LINE
  5
11E
100
AcDbEntity
  8
0
 62
7
420
16777215
370
-1
 48
1.0
  6
BYLAYER
100
AcDbLine
 10
76.568575000000024
 20
146.8607087499999864
 30
0.0
 11
76.568575000000024
 21
163.5506387499999903
 31
0.0
  0
LINE
  5
11F
100
AcDbEntity
  8
0
 62
7
420
16777215
370
-1
 48
1.0
  6
BYLAYER
100
AcDbLine
 10
76.568575000000024
 20
163.5506387499999903
 30
0.0
 11
73.2708050000000242
 21
163.5506387499999903
 31
0.0
  0
LINE
  5
120
100
AcDbEntity
  8
0
 62
7
420
16777215
370
-1
 48
1.0
  6
BYLAYER
100
AcDbLine
 10
73.2708050000000242
 20
163.5506387499999903
 30
0.0
 11
73.2708050000000242
 21
146.8204917499999738
 31
0.0
  0
SPLINE
  5
121
100
AcDbEntity
  8
0
 62
7
420
16777215
370
-1
 48
1.0
  6
BYLAYER
100
AcDbSpline
 70
8
 71
3
 72
8
 73
4
 74
0
 40
0.0
 40
0.0
 40
0.0
 40
0.0
 40
1.0
 40
1.0
 40
1.0
 40
1.0
 10
73.2708050000000242
 20
146.8204917499999738
 30
0.0
 10
73.2708050000000242
 20
141.873838749999976
 30
0.0
 10
76.367492000000027
 20
139.3804027499999734
 30
0.0
 10
81.1130610000000303
 20
139.3804027499999734
 30
0.0
  0
LINE
  5
122
100
AcDbEntity
  8
0
 62
7
420
16777215
370
-1
 48
1.0
  6
BYLAYER
100
AcDbLine
 10
81.1130610000000303
 20
139.3804027499999734
 30
0.0
 11
81.1130610000000303
 21
139.3804027499999734
 31
0.0
  0
LINE
  5
123
100
AcDbEntity
  8
0
 62
7
420
16777215
370
-1
 48
1.0
  6
BYLAYER
100
AcDbLine
 10
121.4648670000000266
 20
163.5506387499999903
 30
0.0
 11
118.1268810000000258
 21
163.5506387499999903
 31
0.0
  0
LINE
  5
124
100
AcDbEntity
  8
0
 62
7
420
16777215
370
-1
 48
1.0
  6
BYLAYER
100
AcDbLine
 10
118.1268810000000258
 20
163.5506387499999903
 30
0.0
 11
108.4748720000000333
 21
142.2357887499999833
 31
0.0
  0
LINE
  5
125
100
AcDbEntity
  8
0
 62
7
420
16777215
370
-1
 48
1.0
  6
BYLAYER
100
AcDbLine
 10
108.4748720000000333
 20
142.2357887499999833
 30
0.0
 11
98.7022140000000263
 21
163.5506387499999903
 31
0.0
  0
LINE
  5
126
100
AcDbEntity
  8
0
 62
7
420
16777215
370
-1
 48
1.0
  6
BYLAYER
100
AcDbLine
 10
98.7022140000000263
 20
163.5506387499999903
 30
0.0
 11
95.2033610000000294
 21
163.5506387499999903
 31
0.0
  0
LINE
  5
127
100
AcDbEntity
  8
0
 62
7
420
16777215
370
-1
 48
1.0
  6
BYLAYER
100
AcDbLine
 10
95.2033610000000294
 20
163.5506387499999903
 30
0.0
 11
108.072706000000025
 21
135.9217667499999891
 31
0.0
  0
SPLINE
  5
128
100
AcDbEntity
  8
0
 62
7
420
16777215
370
-1
 48
1.0
  6
BYLAYER
100
AcDbSpline
 70
8
 71
3
 72
8
 73
4
 74
0
 40
0.0
 40
0.0
 40
0.0
 40
0.0
 40
1.0
 40
1.0
 40
1.0
 40
1.0
 10
108.072706000000025
 20
135.9217667499999891
 30
0.0
 10
108.1933560000000227
 20
135.6804667499999937
 30
0.0
 10
108.4346560000000323
 20
135.6804667499999937
 30
0.0
 10
108.5553060000000301
 20
135.9217667499999891
 30
0.0
  0
LINE
  5
129
100
AcDbEntity
  8
0
 62
7
420
16777215
370
-1
 48
1.0
  6
BYLAYER
100
AcDbLine
 10
108.5553060000000301
 20
135.9217667499999891
 30
0.0
 11
121.4648670000000266
 21
163.5506387499999903
 31
0.0
  0
LINE
  5
12A
100
AcDbEntity
  8
0
 62
7
420
16777215
370
-1
 48
1.0
  6
BYLAYER
100
AcDbLine
 10
121.4648670000000266
 20
163.5506387499999903
 30
0.0
 11
121.4648670000000266
 21
163.5506387499999903
 31
0.0
  0
LINE
  5
12B
100
AcDbEntity
  8
0
 62
7
420
16777215
370
-1
 48
1.0
  6
BYLAYER
100
AcDbLine
 10
108.4748720000000333
 20
144.0053227499999764
 30
0.0
 11
117.322548000000026
 21
163.5506387499999903
 31
0.0
  0
LINE
  5
12C
100
AcDbEntity
  8
0
 62
7
420
16777215
370
-1
 48
1.0
  6
BYLAYER
100
AcDbLine
 10
117.322548000000026
 20
163.5506387499999903
 30
0.0
 11
114.0247780000000262
 21
163.5506387499999903
 31
0.0
  0
LINE
  5
12D
100
AcDbEntity
  8
0
 62
7
420
16777215
370
-1
 48
1.0
  6
BYLAYER
100
AcDbLine
 10
114.0247780000000262
 20
163.5506387499999903
 30
0.0
 11
108.595522000000031
 21
150.8019447499999899
 31
0.0
  0
LINE
  5
12E
100
AcDbEntity
  8
0
 62
7
420
16777215
370
-1
 48
1.0
  6
BYLAYER
100
AcDbLine
 10
108.595522000000031
 20
150.8019447499999899
 30
0.0
 11
103.0054030000000296
 21
163.5506387499999903
 31
0.0
  0
LINE
  5
12F
100
AcDbEntity
  8
0
 62
7
420
16777215
370
-1
 48
1.0
  6
BYLAYER
100
AcDbLine
 10
103.0054030000000296
 20
163.5506387499999903
 30
0.0
 11
99.5065500000000327
 21
163.5506387499999903
 31
0.0
  0
LINE
  5
130
100
AcDbEntity
  8
0
 62
7
420
16777215
370
-1
 48
1.0
  6
BYLAYER
100
AcDbLine
 10
99.5065500000000327
 20
163.5506387499999903
 30
0.0
 11
108.4748720000000333
 21
144.0053227499999764
 31
0.0
  0
LINE
  5
131
100
AcDbEntity
  8
0
 62
7
420
16777215
370
-1
 48
1.0
  6
BYLAYER
100
AcDbLine
 10
108.4748720000000333
 20
144.0053227499999764
 30
0.0
 11
108.4748720000000333
 21
144.0053227499999764
 31
0.0
  0
LINE
  5
132
100
AcDbEntity
  8
0
 62
7
420
16777215
370
-1
 48
1.0
  6
BYLAYER
100
AcDbLine
 10
123.9645830000000331
 20
136.2032827499999712
 30
0.0
 11
143.7109830000000272
 21
136.2032827499999712
 31
0.0
  0
LINE
  5
133
100
AcDbEntity
  8
0
 62
7
420
16777215
370
-1
 48
1.0
  6
BYLAYER
100
AcDbLine
 10
143.7109830000000272
 20
136.2032827499999712
 30
0.0
 11
143.7109830000000272
 21
138.8978027499999826
 31
0.0
  0
LINE
  5
134
100
AcDbEntity
  8
0
 62
7
420
16777215
370
-1
 48
1.0
  6
BYLAYER
100
AcDbLine
 10
143.7109830000000272
 20
138.8978027499999826
 30
0.0
 11
127.2623520000000354
 21
138.8978027499999826
 31
0.0
  0
LINE
  5
135
100
AcDbEntity
  8
0
 62
7
420
16777215
370
-1
 48
1.0
  6
BYLAYER
100
AcDbLine
 10
127.2623520000000354
 20
138.8978027499999826
 30
0.0
 11
127.2623520000000354
 21
160.8159037499999897
 31
0.0
  0
LINE
  5
136
100
AcDbEntity
  8
0
 62
7
420
16777215
370
-1
 48
1.0
  6
BYLAYER
100
AcDbLine
 10
127.2623520000000354
 20
160.8159037499999897
 30
0.0
 11
143.1479470000000163
 21
160.8159037499999897
 31
0.0
  0
LINE
  5
137
100
AcDbEntity
  8
0
 62
7
420
16777215
370
-1
 48
1.0
  6
BYLAYER
100
AcDbLine
 10
143.1479470000000163
 20
160.8159037499999897
 30
0.0
 11
143.1479470000000163
 21
163.5506387499999903
 31
0.0
  0
LINE
  5
138
100
AcDbEntity
  8
0
 62
7
420
16777215
370
-1
 48
1.0
  6
BYLAYER
100
AcDbLine
 10
143.1479470000000163
 20
163.5506387499999903
 30
0.0
 11
123.9645830000000331
 21
163.5506387499999903
 31
0.0
  0
LINE
  5
139
100
AcDbEntity
  8
0
 62
7
420
16777215
370
-1
 48
1.0
  6
BYLAYER
100
AcDbLine
 10
123.9645830000000331
 20
163.5506387499999903
 30
0.0
 11
123.9645830000000331
 21
136.2032827499999712
 31
0.0
  0
LINE
  5
13A
100
AcDbEntity
  8
0
 62
7
420
16777215
370
-1
 48
1.0
  6
BYLAYER
100
AcDbLine
 10
123.9645830000000331
 20
136.2032827499999712
 30
0.0
 11
123.9645830000000331
 21
136.2032827499999712
 31
0.0
  0
LINE
  5
13B
100
AcDbEntity
  8
0
 62
7
420
16777215
370
-1
 48
1.0
  6
BYLAYER
100
AcDbLine
 10
143.7109830000000272
 20
142.3564387499999953
 30
0.0
 11
131.2840220000000215
 21
142.3564387499999953
 31
0.0
  0
LINE
  5
13C
100
AcDbEntity
  8
0
 62
7
420
16777215
370
-1
 48
1.0
  6
BYLAYER
100
AcDbLine
 10
131.2840220000000215
 20
142.3564387499999953
 30
0.0
 11
131.2840220000000215
 21
147.0617917499999692
 31
0.0
  0
LINE
  5
13D
100
AcDbEntity
  8
0
 62
7
420
16777215
370
-1
 48
1.0
  6
BYLAYER
100
AcDbLine
 10
131.2840220000000215
 20
147.0617917499999692
 30
0.0
 11
141.1773300000000404
 21
147.0617917499999692
 31
0.0
  0
LINE
  5
13E
100
AcDbEntity
  8
0
 62
7
420
16777215
370
-1
 48
1.0
  6
BYLAYER
100
AcDbLine
 10
141.1773300000000404
 20
147.0617917499999692
 30
0.0
 11
141.1773300000000404
 21
149.5954437499999869
 31
0.0
  0
LINE
  5
13F
100
AcDbEntity
  8
0
 62
7
420
16777215
370
-1
 48
1.0
  6
BYLAYER
100
AcDbLine
 10
141.1773300000000404
 20
149.5954437499999869
 30
0.0
 11
127.9862520000000217
 21
149.5954437499999869
 31
0.0
  0
LINE
  5
140
100
AcDbEntity
  8
0
 62
7
420
16777215
370
-1
 48
1.0
  6
BYLAYER
100
AcDbLine
 10
127.9862520000000217
 20
149.5954437499999869
 30
0.0
 11
127.9862520000000217
 21
139.6217027499999688
 31
0.0
  0
LINE
  5
141
100
AcDbEntity
  8
0
 62
7
420
16777215
370
-1
 48
1.0
  6
BYLAYER
100
AcDbLine
 10
127.9862520000000217
 20
139.6217027499999688
 30
0.0
 11
143.7109830000000272
 21
139.6217027499999688
 31
0.0
  0
LINE
  5
142
100
AcDbEntity
  8
0
 62
7
420
16777215
370
-1
 48
1.0
  6
BYLAYER
100
AcDbLine
 10
143.7109830000000272
 20
139.6217027499999688
 30
0.0
 11
143.7109830000000272
 21
142.3564387499999953
 31
0.0
  0
LINE
  5
143
100
AcDbEntity
  8
0
 62
7
420
16777215
370
-1
 48
1.0
  6
BYLAYER
100
AcDbLine
 10
143.7109830000000272
 20
142.3564387499999953
 30
0.0
 11
143.7109830000000272
 21
142.3564387499999953
 31
0.0
  0
LINE
  5
144
100
AcDbEntity
  8
0
 62
7
420
16777215
370
-1
 48
1.0
  6
BYLAYER
100
AcDbLine
 10
141.1773300000000404
 20
152.8932137499999726
 30
0.0
 11
131.2840220000000215
 21
152.8932137499999726
 31
0.0
  0
LINE
  5
145
100
AcDbEntity
  8
0
 62
7
420
16777215
370
-1
 48
1.0
  6
BYLAYER
100
AcDbLine
 10
131.2840220000000215
 20
152.8932137499999726
 30
0.0
 11
131.2840220000000215
 21
157.3974837499999921
 31
0.0
  0
LINE
  5
146
100
AcDbEntity
  8
0
 62
7
420
16777215
370
-1
 48
1.0
  6
BYLAYER
100
AcDbLine
 10
131.2840220000000215
 20
157.3974837499999921
 30
0.0
 11
143.1479470000000163
 21
157.3974837499999921
 31
0.0
  0
LINE
  5
147
100
AcDbEntity
  8
0
 62
7
420
16777215
370
-1
 48
1.0
  6
BYLAYER
100
AcDbLine
 10
143.1479470000000163
 20
157.3974837499999921
 30
0.0
 11
143.1479470000000163
 21
160.0920027499999776
 31
0.0
  0
LINE
  5
148
100
AcDbEntity
  8
0
 62
7
420
16777215
370
-1
 48
1.0
  6
BYLAYER
100
AcDbLine
 10
143.1479470000000163
 20
160.0920027499999776
 30
0.0
 11
127.9862520000000217
 21
160.0920027499999776
 31
0.0
  0
LINE
  5
149
100
AcDbEntity
  8
0
 62
7
420
16777215
370
-1
 48
1.0
  6
BYLAYER
100
AcDbLine
 10
127.9862520000000217
 20
160.0920027499999776
 30
0.0
 11
127.9862520000000217
 21
150.3193447499999706
 31
0.0
  0
LINE
  5
14A
100
AcDbEntity
  8
0
 62
7
420
16777215
370
-1
 48
1.0
  6
BYLAYER
100
AcDbLine
 10
127.9862520000000217
 20
150.3193447499999706
 30
0.0
 11
141.1773300000000404
 21
150.3193447499999706
 31
0.0
  0
LINE
  5
14B
100
AcDbEntity
  8
0
 62
7
420
16777215
370
-1
 48
1.0
  6
BYLAYER
100
AcDbLine
 10
141.1773300000000404
 20
150.3193447499999706
 30
0.0
 11
141.1773300000000404
 21
152.8932137499999726
 31
0.0
  0
LINE
  5
14C
100
AcDbEntity
  8
0
 62
7
420
16777215
370
-1
 48
1.0
  6
BYLAYER
100
AcDbLine
 10
141.1773300000000404
 20
152.8932137499999726
 30
0.0
 11
141.1773300000000404
 21
152.8932137499999726
 31
0.0
  0
LINE
  5
14D
100
AcDbEntity
  8
0
 62
7
420
16777215
370
-1
 48
1.0
  6
BYLAYER
100
AcDbLine
 10
150.5126370000000406
 20
160.8159037499999897
 30
0.0
 11
158.1135930000000371
 21
160.8159037499999897
 31
0.0
  0
SPLINE
  5
14E
100
AcDbEntity
  8
0
 62
7
420
16777215
370
-1
 48
1.0
  6
BYLAYER
100
AcDbSpline
 70
8
 71
3
 72
8
 73
4
 74
0
 40
0.0
 40
0.0
 40
0.0
 40
0.0
 40
1.0
 40
1.0
 40
1.0
 40
1.0
 10
158.1135930000000371
 20
160.8159037499999897
 30
0.0
 10
163.0602480000000298
 20
160.8159037499999897
 30
0.0
 10
165.7949850000000254
 20
158.0007347499999923
 30
0.0
 10
165.7949850000000254
 20
153.8584147499999801
 30
0.0
  0
SPLINE
  5
14F
100
AcDbEntity
  8
0
 62
7
420
16777215
370
-1
 48
1.0
  6
BYLAYER
100
AcDbSpline
 70
8
 71
3
 72
8
 73
4
 74
0
 40
0.0
 40
0.0
 40
0.0
 40
0.0
 40
1.0
 40
1.0
 40
1.0
 40
1.0
 10
165.7949850000000254
 20
153.8584147499999801
 30
0.0
 10
165.7949850000000254
 20
150.3193447499999706
 30
0.0
 10
163.7037150000000167
 20
147.9063427499999932
 30
0.0
 10
159.842912000000041
 20
147.3433087499999772
 30
0.0
  0
LINE
  5
150
100
AcDbEntity
  8
0
 62
7
420
16777215
370
-1
 48
1.0
  6
BYLAYER
100
AcDbLine
 10
159.842912000000041
 20
147.3433087499999772
 30
0.0
 11
166.1971510000000194
 21
136.2032827499999712
 31
0.0
  0
LINE
  5
151
100
AcDbEntity
  8
0
 62
7
420
16777215
370
-1
 48
1.0
  6
BYLAYER
100
AcDbLine
 10
166.1971510000000194
 20
136.2032827499999712
 30
0.0
 11
169.7764370000000156
 21
136.2032827499999712
 31
0.0
  0
LINE
  5
152
100
AcDbEntity
  8
0
 62
7
420
16777215
370
-1
 48
1.0
  6
BYLAYER
100
AcDbLine
 10
169.7764370000000156
 20
136.2032827499999712
 30
0.0
 11
164.1058820000000367
 21
145.8955077499999788
 31
0.0
  0
SPLINE
  5
153
100
AcDbEntity
  8
0
 62
7
420
16777215
370
-1
 48
1.0
  6
BYLAYER
100
AcDbSpline
 70
8
 71
3
 72
8
 73
4
 74
0
 40
0.0
 40
0.0
 40
0.0
 40
0.0
 40
1.0
 40
1.0
 40
1.0
 40
1.0
 10
164.1058820000000367
 20
145.8955077499999788
 30
0.0
 10
167.3634350000000381
 20
147.3835257499999898
 30
0.0
 10
169.092754000000042
 20
150.2389117499999713
 30
0.0
 10
169.092754000000042
 20
153.8584147499999801
 30
0.0
  0
SPLINE
  5
154
100
AcDbEntity
  8
0
 62
7
420
16777215
370
-1
 48
1.0
  6
BYLAYER
100
AcDbSpline
 70
8
 71
3
 72
8
 73
4
 74
0
 40
0.0
 40
0.0
 40
0.0
 40
0.0
 40
1.0
 40
1.0
 40
1.0
 40
1.0
 10
169.092754000000042
 20
153.8584147499999801
 30
0.0
 10
169.092754000000042
 20
159.4485357499999907
 30
0.0
 10
165.2319510000000378
 20
163.5506387499999903
 30
0.0
 10
158.2744600000000332
 20
163.5506387499999903
 30
0.0
  0
LINE
  5
155
100
AcDbEntity
  8
0
 62
7
420
16777215
370
-1
 48
1.0
  6
BYLAYER
100
AcDbLine
 10
158.2744600000000332
 20
163.5506387499999903
 30
0.0
 11
147.214868000000024
 21
163.5506387499999903
 31
0.0
  0
LINE
  5
156
100
AcDbEntity
  8
0
 62
7
420
16777215
370
-1
 48
1.0
  6
BYLAYER
100
AcDbLine
 10
147.214868000000024
 20
163.5506387499999903
 30
0.0
 11
147.214868000000024
 21
136.2032827499999712
 31
0.0
  0
LINE
  5
157
100
AcDbEntity
  8
0
 62
7
420
16777215
370
-1
 48
1.0
  6
BYLAYER
100
AcDbLine
 10
147.214868000000024
 20
136.2032827499999712
 30
0.0
 11
150.5126370000000406
 21
136.2032827499999712
 31
0.0
  0
LINE
  5
158
100
AcDbEntity
  8
0
 62
7
420
16777215
370
-1
 48
1.0
  6
BYLAYER
100
AcDbLine
 10
150.5126370000000406
 20
136.2032827499999712
 30
0.0
 11
150.5126370000000406
 21
160.8159037499999897
 31
0.0
  0
LINE
  5
159
100
AcDbEntity
  8
0
 62
7
420
16777215
370
-1
 48
1.0
  6
BYLAYER
100
AcDbLine
 10
150.5126370000000406
 20
160.8159037499999897
 30
0.0
 11
150.5126370000000406
 21
160.8159037499999897
 31
0.0
  0
SPLINE
  5
15A
100
AcDbEntity
  8
0
 62
7
420
16777215
370
-1
 48
1.0
  6
BYLAYER
100
AcDbSpline
 70
8
 71
3
 72
8
 73
4
 74
0
 40
0.0
 40
0.0
 40
0.0
 40
0.0
 40
1.0
 40
1.0
 40
1.0
 40
1.0
 10
158.1135930000000371
 20
147.9465597499999774
 30
0.0
 10
162.577648000000039
 20
147.9465597499999774
 30
0.0
 10
165.0710820000000183
 20
150.2389117499999713
 30
0.0
 10
165.0710820000000183
 20
153.8584147499999801
 30
0.0
  0
SPLINE
  5
15B
100
AcDbEntity
  8
0
 62
7
420
16777215
370
-1
 48
1.0
  6
BYLAYER
100
AcDbSpline
 70
8
 71
3
 72
8
 73
4
 74
0
 40
0.0
 40
0.0
 40
0.0
 40
0.0
 40
1.0
 40
1.0
 40
1.0
 40
1.0
 10
165.0710820000000183
 20
153.8584147499999801
 30
0.0
 10
165.0710820000000183
 20
157.5985677499999724
 30
0.0
 10
162.577648000000039
 20
160.0920027499999776
 30
0.0
 10
158.1135930000000371
 20
160.0920027499999776
 30
0.0
  0
LINE
  5
15C
100
AcDbEntity
  8
0
 62
7
420
16777215
370
-1
 48
1.0
  6
BYLAYER
100
AcDbLine
 10
158.1135930000000371
 20
160.0920027499999776
 30
0.0
 11
151.2365370000000269
 21
160.0920027499999776
 31
0.0
  0
LINE
  5
15D
100
AcDbEntity
  8
0
 62
7
420
16777215
370
-1
 48
1.0
  6
BYLAYER
100
AcDbLine
 10
151.2365370000000269
 20
160.0920027499999776
 30
0.0
 11
151.2365370000000269
 21
147.9465597499999774
 31
0.0
  0
LINE
  5
15E
100
AcDbEntity
  8
0
 62
7
420
16777215
370
-1
 48
1.0
  6
BYLAYER
100
AcDbLine
 10
151.2365370000000269
 20
147.9465597499999774
 30
0.0
 11
158.1135930000000371
 21
147.9465597499999774
 31
0.0
  0
LINE
  5
15F
100
AcDbEntity
  8
0
 62
7
420
16777215
370
-1
 48
1.0
  6
BYLAYER
100
AcDbLine
 10
158.1135930000000371
 20
147.9465597499999774
 30
0.0
 11
158.1135930000000371
 21
147.9465597499999774
 31
0.0
  0
LINE
  5
160
100
AcDbEntity
  8
0
 62
7
420
16777215
370
-1
 48
1.0
  6
BYLAYER
100
AcDbLine
 10
154.5343070000000409
 20
144.7694397499999752
 30
0.0
 11
157.0277430000000152
 21
144.7694397499999752
 31
0.0
  0
LINE
  5
161
100
AcDbEntity
  8
0
 62
7
420
16777215
370
-1
 48
1.0
  6
BYLAYER
100
AcDbLine
 10
157.0277430000000152
 20
144.7694397499999752
 30
0.0
 11
161.8537480000000244
 21
136.2032827499999712
 31
0.0
  0
LINE
  5
162
100
AcDbEntity
  8
0
 62
7
420
16777215
370
-1
 48
1.0
  6
BYLAYER
100
AcDbLine
 10
161.8537480000000244
 20
136.2032827499999712
 30
0.0
 11
165.3928180000000339
 21
136.2032827499999712
 31
0.0
  0
LINE
  5
163
100
AcDbEntity
  8
0
 62
7
420
16777215
370
-1
 48
1.0
  6
BYLAYER
100
AcDbLine
 10
165.3928180000000339
 20
136.2032827499999712
 30
0.0
 11
159.0787960000000396
 21
147.2628757499999779
 31
0.0
  0
SPLINE
  5
164
100
AcDbEntity
  8
0
 62
7
420
16777215
370
-1
 48
1.0
  6
BYLAYER
100
AcDbSpline
 70
8
 71
3
 72
8
 73
4
 74
0
 40
0.0
 40
0.0
 40
0.0
 40
0.0
 40
1.0
 40
1.0
 40
1.0
 40
1.0
 10
159.0787960000000396
 20
147.2628757499999779
 30
0.0
 10
158.6364120000000355
 20
147.2226587499999937
 30
0.0
 10
158.4353260000000319
 20
147.2226587499999937
 30
0.0
 10
158.1135930000000371
 20
147.2226587499999937
 30
0.0
  0
LINE
  5
165
100
AcDbEntity
  8
0
 62
7
420
16777215
370
-1
 48
1.0
  6
BYLAYER
100
AcDbLine
 10
158.1135930000000371
 20
147.2226587499999937
 30
0.0
 11
151.2365370000000269
 21
147.2226587499999937
 31
0.0
  0
LINE
  5
166
100
AcDbEntity
  8
0
 62
7
420
16777215
370
-1
 48
1.0
  6
BYLAYER
100
AcDbLine
 10
151.2365370000000269
 20
147.2226587499999937
 30
0.0
 11
151.2365370000000269
 21
136.2032827499999712
 31
0.0
  0
LINE
  5
167
100
AcDbEntity
  8
0
 62
7
420
16777215
370
-1
 48
1.0
  6
BYLAYER
100
AcDbLine
 10
151.2365370000000269
 20
136.2032827499999712
 30
0.0
 11
154.5343070000000409
 21
136.2032827499999712
 31
0.0
  0
LINE
  5
168
100
AcDbEntity
  8
0
 62
7
420
16777215
370
-1
 48
1.0
  6
BYLAYER
100
AcDbLine
 10
154.5343070000000409
 20
136.2032827499999712
 30
0.0
 11
154.5343070000000409
 21
144.7694397499999752
 31
0.0
  0
LINE
  5
169
100
AcDbEntity
  8
0
 62
7
420
16777215
370
-1
 48
1.0
  6
BYLAYER
100
AcDbLine
 10
154.5343070000000409
 20
144.7694397499999752
 30
0.0
 11
154.5343070000000409
 21
144.7694397499999752
 31
0.0
  0
LINE
  5
16A
100
AcDbEntity
  8
0
 62
7
420
16777215
370
-1
 48
1.0
  6
BYLAYER
100
AcDbLine
 10
154.5343070000000409
 20
150.3595617499999832
 30
0.0
 11
154.5343070000000409
 21
157.3572667499999795
 31
0.0
  0
LINE
  5
16B
100
AcDbEntity
  8
0
 62
7
420
16777215
370
-1
 48
1.0
  6
BYLAYER
100
AcDbLine
 10
154.5343070000000409
 20
157.3572667499999795
 30
0.0
 11
157.9125100000000259
 21
157.3572667499999795
 31
0.0
  0
SPLINE
  5
16C
100
AcDbEntity
  8
0
 62
7
420
16777215
370
-1
 48
1.0
  6
BYLAYER
100
AcDbSpline
 70
8
 71
3
 72
8
 73
4
 74
0
 40
0.0
 40
0.0
 40
0.0
 40
0.0
 40
1.0
 40
1.0
 40
1.0
 40
1.0
 10
157.9125100000000259
 20
157.3572667499999795
 30
0.0
 10
160.4059460000000286
 20
157.3572667499999795
 30
0.0
 10
161.7330960000000175
 20
156.1105497499999899
 30
0.0
 10
161.7330960000000175
 20
153.8584147499999801
 30
0.0
  0
SPLINE
  5
16D
100
AcDbEntity
  8
0
 62
7
420
16777215
370
-1
 48
1.0
  6
BYLAYER
100
AcDbSpline
 70
8
 71
3
 72
8
 73
4
 74
0
 40
0.0
 40
0.0
 40
0.0
 40
0.0
 40
1.0
 40
1.0
 40
1.0
 40
1.0
 10
161.7330960000000175
 20
153.8584147499999801
 30
0.0
 10
161.7330960000000175
 20
151.6062787499999729
 30
0.0
 10
160.4059460000000286
 20
150.3595617499999832
 30
0.0
 10
157.9125100000000259
 20
150.3595617499999832
 30
0.0
  0
LINE
  5
16E
100
AcDbEntity
  8
0
 62
7
420
16777215
370
-1
 48
1.0
  6
BYLAYER
100
AcDbLine
 10
157.9125100000000259
 20
150.3595617499999832
 30
0.0
 11
154.5343070000000409
 21
150.3595617499999832
 31
0.0
  0
LINE
  5
16F
100
AcDbEntity
  8
0
 62
7
420
16777215
370
-1
 48
1.0
  6
BYLAYER
100
AcDbLine
 10
154.5343070000000409
 20
150.3595617499999832
 30
0.0
 11
154.5343070000000409
 21
150.3595617499999832
 31
0.0
  0
LINE
  5
170
100
AcDbEntity
  8
0
 62
7
420
16777215
370
-1
 48
1.0
  6
BYLAYER
100
AcDbLine
 10
185.6965900000000147
 20
136.2032827499999712
 30
0.0
 11
185.6965900000000147
 21
157.3974837499999921
 31
0.0
  0
LINE
  5
171
100
AcDbEntity
  8
0
 62
7
420
16777215
370
-1
 48
1.0
  6
BYLAYER
100
AcDbLine
 10
185.6965900000000147
 20
157.3974837499999921
 30
0.0
 11
192.9355960000000323
 21
157.3974837499999921
 31
0.0
  0
LINE
  5
172
100
AcDbEntity
  8
0
 62
7
420
16777215
370
-1
 48
1.0
  6
BYLAYER
100
AcDbLine
 10
192.9355960000000323
 20
157.3974837499999921
 30
0.0
 11
192.9355960000000323
 21
160.0920027499999776
 31
0.0
  0
LINE
  5
173
100
AcDbEntity
  8
0
 62
7
420
16777215
370
-1
 48
1.0
  6
BYLAYER
100
AcDbLine
 10
192.9355960000000323
 20
160.0920027499999776
 30
0.0
 11
182.3988210000000265
 21
160.0920027499999776
 31
0.0
  0
LINE
  5
174
100
AcDbEntity
  8
0
 62
7
420
16777215
370
-1
 48
1.0
  6
BYLAYER
100
AcDbLine
 10
182.3988210000000265
 20
160.0920027499999776
 30
0.0
 11
182.3988210000000265
 21
136.2032827499999712
 31
0.0
  0
LINE
  5
175
100
AcDbEntity
  8
0
 62
7
420
16777215
370
-1
 48
1.0
  6
BYLAYER
100
AcDbLine
 10
182.3988210000000265
 20
136.2032827499999712
 30
0.0
 11
185.6965900000000147
 21
136.2032827499999712
 31
0.0
  0
LINE
  5
176
100
AcDbEntity
  8
0
 62
7
420
16777215
370
-1
 48
1.0
  6
BYLAYER
100
AcDbLine
 10
185.6965900000000147
 20
136.2032827499999712
 30
0.0
 11
185.6965900000000147
 21
136.2032827499999712
 31
0.0
  0
LINE
  5
177
100
AcDbEntity
  8
0
 62
7
420
16777215
370
-1
 48
1.0
  6
BYLAYER
100
AcDbLine
 10
178.3771510000000262
 20
136.2032827499999712
 30
0.0
 11
181.6749210000000403
 21
136.2032827499999712
 31
0.0
  0
LINE
  5
178
100
AcDbEntity
  8
0
 62
7
420
16777215
370
-1
 48
1.0
  6
BYLAYER
100
AcDbLine
 10
181.6749210000000403
 20
136.2032827499999712
 30
0.0
 11
181.6749210000000403
 21
160.0920027499999776
 31
0.0
  0
LINE
  5
179
100
AcDbEntity
  8
0
 62
7
420
16777215
370
-1
 48
1.0
  6
BYLAYER
100
AcDbLine
 10
181.6749210000000403
 20
160.0920027499999776
 30
0.0
 11
171.1381460000000345
 21
160.0920027499999776
 31
0.0
  0
LINE
  5
17A
100
AcDbEntity
  8
0
 62
7
420
16777215
370
-1
 48
1.0
  6
BYLAYER
100
AcDbLine
 10
171.1381460000000345
 20
160.0920027499999776
 30
0.0
 11
171.1381460000000345
 21
157.3974837499999921
 31
0.0
  0
LINE
  5
17B
100
AcDbEntity
  8
0
 62
7
420
16777215
370
-1
 48
1.0
  6
BYLAYER
100
AcDbLine
 10
171.1381460000000345
 20
157.3974837499999921
 30
0.0
 11
178.3771510000000262
 21
157.3974837499999921
 31
0.0
  0
LINE
  5
17C
100
AcDbEntity
  8
0
 62
7
420
16777215
370
-1
 48
1.0
  6
BYLAYER
100
AcDbLine
 10
178.3771510000000262
 20
157.3974837499999921
 30
0.0
 11
178.3771510000000262
 21
136.2032827499999712
 31
0.0
  0
LINE
  5
17D
100
AcDbEntity
  8
0
 62
7
420
16777215
370
-1
 48
1.0
  6
BYLAYER
100
AcDbLine
 10
178.3771510000000262
 20
136.2032827499999712
 30
0.0
 11
178.3771510000000262
 21
136.2032827499999712
 31
0.0
  0
LINE
  5
17E
100
AcDbEntity
  8
0
 62
7
420
16777215
370
-1
 48
1.0
  6
BYLAYER
100
AcDbLine
 10
192.9355960000000323
 20
163.5506387499999903
 30
0.0
 11
171.1381460000000345
 21
163.5506387499999903
 31
0.0
  0
LINE
  5
17F
100
AcDbEntity
  8
0
 62
7
420
16777215
370
-1
 48
1.0
  6
BYLAYER
100
AcDbLine
 10
171.1381460000000345
 20
163.5506387499999903
 30
0.0
 11
171.1381460000000345
 21
160.8159037499999897
 31
0.0
  0
LINE
  5
180
100
AcDbEntity
  8
0
 62
7
420
16777215
370
-1
 48
1.0
  6
BYLAYER
100
AcDbLine
 10
171.1381460000000345
 20
160.8159037499999897
 30
0.0
 11
192.9355960000000323
 21
160.8159037499999897
 31
0.0
  0
LINE
  5
181
100
AcDbEntity
  8
0
 62
7
420
16777215
370
-1
 48
1.0
  6
BYLAYER
100
AcDbLine
 10
192.9355960000000323
 20
160.8159037499999897
 30
0.0
 11
192.9355960000000323
 21
163.5506387499999903
 31
0.0
  0
LINE
  5
182
100
AcDbEntity
  8
0
 62
7
420
16777215
370
-1
 48
1.0
  6
BYLAYER
100
AcDbLine
 10
192.9355960000000323
 20
163.5506387499999903
 30
0.0
 11
192.9355960000000323
 21
163.5506387499999903
 31
0.0
  0
LINE
  5
183
100
AcDbEntity
  8
0
 62
7
420
16777215
370
-1
 48
1.0
  6
BYLAYER
100
AcDbLine
 10
50.146928000000031
 20
94.7032502500000533
 30
0.0
 11
53.4446970000000263
 21
94.7032502500000533
 31
0.0
  0
LINE
  5
184
100
AcDbEntity
  8
0
 62
7
420
16777215
370
-1
 48
1.0
  6
BYLAYER
100
AcDbLine
 10
53.4446970000000263
 20
94.7032502500000533
 30
0.0
 11
53.4446970000000263
 21
119.3158702500000601
 31
0.0
  0
LINE
  5
185
100
AcDbEntity
  8
0
 62
7
420
16777215
370
-1
 48
1.0
  6
BYLAYER
100
AcDbLine
 10
53.4446970000000263
 20
119.3158702500000601
 30
0.0
 11
68.7270450000000324
 21
119.3158702500000601
 31
0.0
  0
LINE
  5
186
100
AcDbEntity
  8
0
 62
7
420
16777215
370
-1
 48
1.0
  6
BYLAYER
100
AcDbLine
 10
68.7270450000000324
 20
119.3158702500000601
 30
0.0
 11
68.7270450000000324
 21
122.0506062500000581
 31
0.0
  0
LINE
  5
187
100
AcDbEntity
  8
0
 62
7
420
16777215
370
-1
 48
1.0
  6
BYLAYER
100
AcDbLine
 10
68.7270450000000324
 20
122.0506062500000581
 30
0.0
 11
50.146928000000031
 21
122.0506062500000581
 31
0.0
  0
LINE
  5
188
100
AcDbEntity
  8
0
 62
7
420
16777215
370
-1
 48
1.0
  6
BYLAYER
100
AcDbLine
 10
50.146928000000031
 20
122.0506062500000581
 30
0.0
 11
50.146928000000031
 21
94.7032502500000533
 31
0.0
  0
LINE
  5
189
100
AcDbEntity
  8
0
 62
7
420
16777215
370
-1
 48
1.0
  6
BYLAYER
100
AcDbLine
 10
50.146928000000031
 20
94.7032502500000533
 30
0.0
 11
50.146928000000031
 21
94.7032502500000533
 31
0.0
  0
LINE
  5
18A
100
AcDbEntity
  8
0
 62
7
420
16777215
370
-1
 48
1.0
  6
BYLAYER
100
AcDbLine
 10
67.3998920000000226
 20
110.3475462500000503
 30
0.0
 11
57.4663670000000266
 21
110.3475462500000503
 31
0.0
  0
LINE
  5
18B
100
AcDbEntity
  8
0
 62
7
420
16777215
370
-1
 48
1.0
  6
BYLAYER
100
AcDbLine
 10
57.4663670000000266
 20
110.3475462500000503
 30
0.0
 11
57.4663670000000266
 21
115.8974502500000483
 31
0.0
  0
LINE
  5
18C
100
AcDbEntity
  8
0
 62
7
420
16777215
370
-1
 48
1.0
  6
BYLAYER
100
AcDbLine
 10
57.4663670000000266
 20
115.8974502500000483
 30
0.0
 11
68.7270450000000324
 21
115.8974502500000483
 31
0.0
  0
LINE
  5
18D
100
AcDbEntity
  8
0
 62
7
420
16777215
370
-1
 48
1.0
  6
BYLAYER
100
AcDbLine
 10
68.7270450000000324
 20
115.8974502500000483
 30
0.0
 11
68.7270450000000324
 21
118.5919702500000597
 31
0.0
  0
LINE
  5
18E
100
AcDbEntity
  8
0
 62
7
420
16777215
370
-1
 48
1.0
  6
BYLAYER
100
AcDbLine
 10
68.7270450000000324
 20
118.5919702500000597
 30
0.0
 11
54.1685970000000268
 21
118.5919702500000597
 31
0.0
  0
LINE
  5
18F
100
AcDbEntity
  8
0
 62
7
420
16777215
370
-1
 48
1.0
  6
BYLAYER
100
AcDbLine
 10
54.1685970000000268
 20
118.5919702500000597
 30
0.0
 11
54.1685970000000268
 21
107.6128102500000523
 31
0.0
  0
LINE
  5
190
100
AcDbEntity
  8
0
 62
7
420
16777215
370
-1
 48
1.0
  6
BYLAYER
100
AcDbLine
 10
54.1685970000000268
 20
107.6128102500000523
 30
0.0
 11
67.3998920000000226
 21
107.6128102500000523
 31
0.0
  0
LINE
  5
191
100
AcDbEntity
  8
0
 62
7
420
16777215
370
-1
 48
1.0
  6
BYLAYER
100
AcDbLine
 10
67.3998920000000226
 20
107.6128102500000523
 30
0.0
 11
67.3998920000000226
 21
110.3475462500000503
 31
0.0
  0
LINE
  5
192
100
AcDbEntity
  8
0
 62
7
420
16777215
370
-1
 48
1.0
  6
BYLAYER
100
AcDbLine
 10
67.3998920000000226
 20
110.3475462500000503
 30
0.0
 11
67.3998920000000226
 21
110.3475462500000503
 31
0.0
  0
LINE
  5
193
100
AcDbEntity
  8
0
 62
7
420
16777215
370
-1
 48
1.0
  6
BYLAYER
100
AcDbLine
 10
57.4663670000000266
 20
94.7032502500000533
 30
0.0
 11
57.4663670000000266
 21
104.1943902500000547
 31
0.0
  0
LINE
  5
194
100
AcDbEntity
  8
0
 62
7
420
16777215
370
-1
 48
1.0
  6
BYLAYER
100
AcDbLine
 10
57.4663670000000266
 20
104.1943902500000547
 30
0.0
 11
67.3998920000000226
 21
104.1943902500000547
 31
0.0
  0
LINE
  5
195
100
AcDbEntity
  8
0
 62
7
420
16777215
370
-1
 48
1.0
  6
BYLAYER
100
AcDbLine
 10
67.3998920000000226
 20
104.1943902500000547
 30
0.0
 11
67.3998920000000226
 21
106.8889092500000544
 31
0.0
  0
LINE
  5
196
100
AcDbEntity
  8
0
 62
7
420
16777215
370
-1
 48
1.0
  6
BYLAYER
100
AcDbLine
 10
67.3998920000000226
 20
106.8889092500000544
 30
0.0
 11
54.1685970000000268
 21
106.8889092500000544
 31
0.0
  0
LINE
  5
197
100
AcDbEntity
  8
0
 62
7
420
16777215
370
-1
 48
1.0
  6
BYLAYER
100
AcDbLine
 10
54.1685970000000268
 20
106.8889092500000544
 30
0.0
 11
54.1685970000000268
 21
94.7032502500000533
 31
0.0
  0
LINE
  5
198
100
AcDbEntity
  8
0
 62
7
420
16777215
370
-1
 48
1.0
  6
BYLAYER
100
AcDbLine
 10
54.1685970000000268
 20
94.7032502500000533
 30
0.0
 11
57.4663670000000266
 21
94.7032502500000533
 31
0.0
  0
LINE
  5
199
100
AcDbEntity
  8
0
 62
7
420
16777215
370
-1
 48
1.0
  6
BYLAYER
100
AcDbLine
 10
57.4663670000000266
 20
94.7032502500000533
 30
0.0
 11
57.4663670000000266
 21
94.7032502500000533
 31
0.0
  0
LINE
  5
19A
100
AcDbEntity
  8
0
 62
7
420
16777215
370
-1
 48
1.0
  6
BYLAYER
100
AcDbLine
 10
72.3760820000000251
 20
94.7032502500000533
 30
0.0
 11
92.1224820000000335
 21
94.7032502500000533
 31
0.0
  0
LINE
  5
19B
100
AcDbEntity
  8
0
 62
7
420
16777215
370
-1
 48
1.0
  6
BYLAYER
100
AcDbLine
 10
92.1224820000000335
 20
94.7032502500000533
 30
0.0
 11
92.1224820000000335
 21
97.3977692500000529
 31
0.0
  0
LINE
  5
19C
100
AcDbEntity
  8
0
 62
7
420
16777215
370
-1
 48
1.0
  6
BYLAYER
100
AcDbLine
 10
92.1224820000000335
 20
97.3977692500000529
 30
0.0
 11
75.673852000000025
 21
97.3977692500000529
 31
0.0
  0
LINE
  5
19D
100
AcDbEntity
  8
0
 62
7
420
16777215
370
-1
 48
1.0
  6
BYLAYER
100
AcDbLine
 10
75.673852000000025
 20
97.3977692500000529
 30
0.0
 11
75.673852000000025
 21
119.3158702500000601
 31
0.0
  0
LINE
  5
19E
100
AcDbEntity
  8
0
 62
7
420
16777215
370
-1
 48
1.0
  6
BYLAYER
100
AcDbLine
 10
75.673852000000025
 20
119.3158702500000601
 30
0.0
 11
91.5594490000000292
 21
119.3158702500000601
 31
0.0
  0
LINE
  5
19F
100
AcDbEntity
  8
0
 62
7
420
16777215
370
-1
 48
1.0
  6
BYLAYER
100
AcDbLine
 10
91.5594490000000292
 20
119.3158702500000601
 30
0.0
 11
91.5594490000000292
 21
122.0506062500000581
 31
0.0
  0
LINE
  5
1A0
100
AcDbEntity
  8
0
 62
7
420
16777215
370
-1
 48
1.0
  6
BYLAYER
100
AcDbLine
 10
91.5594490000000292
 20
122.0506062500000581
 30
0.0
 11
72.3760820000000251
 21
122.0506062500000581
 31
0.0
  0
LINE
  5
1A1
100
AcDbEntity
  8
0
 62
7
420
16777215
370
-1
 48
1.0
  6
BYLAYER
100
AcDbLine
 10
72.3760820000000251
 20
122.0506062500000581
 30
0.0
 11
72.3760820000000251
 21
94.7032502500000533
 31
0.0
  0
LINE
  5
1A2
100
AcDbEntity
  8
0
 62
7
420
16777215
370
-1
 48
1.0
  6
BYLAYER
100
AcDbLine
 10
72.3760820000000251
 20
94.7032502500000533
 30
0.0
 11
72.3760820000000251
 21
94.7032502500000533
 31
0.0
  0
LINE
  5
1A3
100
AcDbEntity
  8
0
 62
7
420
16777215
370
-1
 48
1.0
  6
BYLAYER
100
AcDbLine
 10
92.1224820000000335
 20
100.8564052500000514
 30
0.0
 11
79.6955210000000278
 21
100.8564052500000514
 31
0.0
  0
LINE
  5
1A4
100
AcDbEntity
  8
0
 62
7
420
16777215
370
-1
 48
1.0
  6
BYLAYER
100
AcDbLine
 10
79.6955210000000278
 20
100.8564052500000514
 30
0.0
 11
79.6955210000000278
 21
105.5617582500000537
 31
0.0
  0
LINE
  5
1A5
100
AcDbEntity
  8
0
 62
7
420
16777215
370
-1
 48
1.0
  6
BYLAYER
100
AcDbLine
 10
79.6955210000000278
 20
105.5617582500000537
 30
0.0
 11
89.5888300000000299
 21
105.5617582500000537
 31
0.0
  0
LINE
  5
1A6
100
AcDbEntity
  8
0
 62
7
420
16777215
370
-1
 48
1.0
  6
BYLAYER
100
AcDbLine
 10
89.5888300000000299
 20
105.5617582500000537
 30
0.0
 11
89.5888300000000299
 21
108.0954112500000548
 31
0.0
  0
LINE
  5
1A7
100
AcDbEntity
  8
0
 62
7
420
16777215
370
-1
 48
1.0
  6
BYLAYER
100
AcDbLine
 10
89.5888300000000299
 20
108.0954112500000548
 30
0.0
 11
76.3977520000000254
 21
108.0954112500000548
 31
0.0
  0
LINE
  5
1A8
100
AcDbEntity
  8
0
 62
7
420
16777215
370
-1
 48
1.0
  6
BYLAYER
100
AcDbLine
 10
76.3977520000000254
 20
108.0954112500000548
 30
0.0
 11
76.3977520000000254
 21
98.1216692500000534
 31
0.0
  0
LINE
  5
1A9
100
AcDbEntity
  8
0
 62
7
420
16777215
370
-1
 48
1.0
  6
BYLAYER
100
AcDbLine
 10
76.3977520000000254
 20
98.1216692500000534
 30
0.0
 11
92.1224820000000335
 21
98.1216692500000534
 31
0.0
  0
LINE
  5
1AA
100
AcDbEntity
  8
0
 62
7
420
16777215
370
-1
 48
1.0
  6
BYLAYER
100
AcDbLine
 10
92.1224820000000335
 20
98.1216692500000534
 30
0.0
 11
92.1224820000000335
 21
100.8564052500000514
 31
0.0
  0
LINE
  5
1AB
100
AcDbEntity
  8
0
 62
7
420
16777215
370
-1
 48
1.0
  6
BYLAYER
100
AcDbLine
 10
92.1224820000000335
 20
100.8564052500000514
 30
0.0
 11
92.1224820000000335
 21
100.8564052500000514
 31
0.0
  0
LINE
  5
1AC
100
AcDbEntity
  8
0
 62
7
420
16777215
370
-1
 48
1.0
  6
BYLAYER
100
AcDbLine
 10
89.5888300000000299
 20
111.3931802500000572
 30
0.0
 11
79.6955210000000278
 21
111.3931802500000572
 31
0.0
  0
LINE
  5
1AD
100
AcDbEntity
  8
0
 62
7
420
16777215
370
-1
 48
1.0
  6
BYLAYER
100
AcDbLine
 10
79.6955210000000278
 20
111.3931802500000572
 30
0.0
 11
79.6955210000000278
 21
115.8974502500000483
 31
0.0
  0
LINE
  5
1AE
100
AcDbEntity
  8
0
 62
7
420
16777215
370
-1
 48
1.0
  6
BYLAYER
100
AcDbLine
 10
79.6955210000000278
 20
115.8974502500000483
 30
0.0
 11
91.5594490000000292
 21
115.8974502500000483
 31
0.0
  0
LINE
  5
1AF
100
AcDbEntity
  8
0
 62
7
420
16777215
370
-1
 48
1.0
  6
BYLAYER
100
AcDbLine
 10
91.5594490000000292
 20
115.8974502500000483
 30
0.0
 11
91.5594490000000292
 21
118.5919702500000597
 31
0.0
  0
LINE
  5
1B0
100
AcDbEntity
  8
0
 62
7
420
16777215
370
-1
 48
1.0
  6
BYLAYER
100
AcDbLine
 10
91.5594490000000292
 20
118.5919702500000597
 30
0.0
 11
76.3977520000000254
 21
118.5919702500000597
 31
0.0
  0
LINE
  5
1B1
100
AcDbEntity
  8
0
 62
7
420
16777215
370
-1
 48
1.0
  6
BYLAYER
100
AcDbLine
 10
76.3977520000000254
 20
118.5919702500000597
 30
0.0
 11
76.3977520000000254
 21
108.8193112500000552
 31
0.0
  0
LINE
  5
1B2
100
AcDbEntity
  8
0
 62
7
420
16777215
370
-1
 48
1.0
  6
BYLAYER
100
AcDbLine
 10
76.3977520000000254
 20
108.8193112500000552
 30
0.0
 11
89.5888300000000299
 21
108.8193112500000552
 31
0.0
  0
LINE
  5
1B3
100
AcDbEntity
  8
0
 62
7
420
16777215
370
-1
 48
1.0
  6
BYLAYER
100
AcDbLine
 10
89.5888300000000299
 20
108.8193112500000552
 30
0.0
 11
89.5888300000000299
 21
111.3931802500000572
 31
0.0
  0
LINE
  5
1B4
100
AcDbEntity
  8
0
 62
7
420
16777215
370
-1
 48
1.0
  6
BYLAYER
100
AcDbLine
 10
89.5888300000000299
 20
111.3931802500000572
 30
0.0
 11
89.5888300000000299
 21
111.3931802500000572
 31
0.0
  0
LINE
  5
1B5
100
AcDbEntity
  8
0
 62
7
420
16777215
370
-1
 48
1.0
  6
BYLAYER
100
AcDbLine
 10
98.9241310000000311
 20
119.3158702500000601
 30
0.0
 11
106.5250870000000276
 21
119.3158702500000601
 31
0.0
  0
SPLINE
  5
1B6
100
AcDbEntity
  8
0
 62
7
420
16777215
370
-1
 48
1.0
  6
BYLAYER
100
AcDbSpline
 70
8
 71
3
 72
8
 73
4
 74
0
 40
0.0
 40
0.0
 40
0.0
 40
0.0
 40
1.0
 40
1.0
 40
1.0
 40
1.0
 10
106.5250870000000276
 20
119.3158702500000601
 30
0.0
 10
111.4717420000000345
 20
119.3158702500000601
 30
0.0
 10
114.2064790000000301
 20
116.5007012500000485
 30
0.0
 10
114.2064790000000301
 20
112.3583812500000505
 30
0.0
  0
SPLINE
  5
1B7
100
AcDbEntity
  8
0
 62
7
420
16777215
370
-1
 48
1.0
  6
BYLAYER
100
AcDbSpline
 70
8
 71
3
 72
8
 73
4
 74
0
 40
0.0
 40
0.0
 40
0.0
 40
0.0
 40
1.0
 40
1.0
 40
1.0
 40
1.0
 10
114.2064790000000301
 20
112.3583812500000505
 30
0.0
 10
114.2064790000000301
 20
108.8193112500000552
 30
0.0
 10
112.1152090000000214
 20
106.4063092500000494
 30
0.0
 10
108.2544060000000314
 20
105.8432752500000475
 30
0.0
  0
LINE
  5
1B8
100
AcDbEntity
  8
0
 62
7
420
16777215
370
-1
 48
1.0
  6
BYLAYER
100
AcDbLine
 10
108.2544060000000314
 20
105.8432752500000475
 30
0.0
 11
114.6086450000000241
 21
94.7032502500000533
 31
0.0
  0
LINE
  5
1B9
100
AcDbEntity
  8
0
 62
7
420
16777215
370
-1
 48
1.0
  6
BYLAYER
100
AcDbLine
 10
114.6086450000000241
 20
94.7032502500000533
 30
0.0
 11
118.1879310000000345
 21
94.7032502500000533
 31
0.0
  0
LINE
  5
1BA
100
AcDbEntity
  8
0
 62
7
420
16777215
370
-1
 48
1.0
  6
BYLAYER
100
AcDbLine
 10
118.1879310000000345
 20
94.7032502500000533
 30
0.0
 11
112.5173760000000271
 21
104.3954742500000492
 31
0.0
  0
SPLINE
  5
1BB
100
AcDbEntity
  8
0
 62
7
420
16777215
370
-1
 48
1.0
  6
BYLAYER
100
AcDbSpline
 70
8
 71
3
 72
8
 73
4
 74
0
 40
0.0
 40
0.0
 40
0.0
 40
0.0
 40
1.0
 40
1.0
 40
1.0
 40
1.0
 10
112.5173760000000271
 20
104.3954742500000492
 30
0.0
 10
115.7749290000000286
 20
105.8834922500000602
 30
0.0
 10
117.5042480000000324
 20
108.7388782500000559
 30
0.0
 10
117.5042480000000324
 20
112.3583812500000505
 30
0.0
  0
SPLINE
  5
1BC
100
AcDbEntity
  8
0
 62
7
420
16777215
370
-1
 48
1.0
  6
BYLAYER
100
AcDbSpline
 70
8
 71
3
 72
8
 73
4
 74
0
 40
0.0
 40
0.0
 40
0.0
 40
0.0
 40
1.0
 40
1.0
 40
1.0
 40
1.0
 10
117.5042480000000324
 20
112.3583812500000505
 30
0.0
 10
117.5042480000000324
 20
117.9485022500000468
 30
0.0
 10
113.6434420000000216
 20
122.0506062500000581
 30
0.0
 10
106.6859530000000262
 20
122.0506062500000581
 30
0.0
  0
LINE
  5
1BD
100
AcDbEntity
  8
0
 62
7
420
16777215
370
-1
 48
1.0
  6
BYLAYER
100
AcDbLine
 10
106.6859530000000262
 20
122.0506062500000581
 30
0.0
 11
95.6263620000000287
 21
122.0506062500000581
 31
0.0
  0
LINE
  5
1BE
100
AcDbEntity
  8
0
 62
7
420
16777215
370
-1
 48
1.0
  6
BYLAYER
100
AcDbLine
 10
95.6263620000000287
 20
122.0506062500000581
 30
0.0
 11
95.6263620000000287
 21
94.7032502500000533
 31
0.0
  0
LINE
  5
1BF
100
AcDbEntity
  8
0
 62
7
420
16777215
370
-1
 48
1.0
  6
BYLAYER
100
AcDbLine
 10
95.6263620000000287
 20
94.7032502500000533
 30
0.0
 11
98.9241310000000311
 21
94.7032502500000533
 31
0.0
  0
LINE
  5
1C0
100
AcDbEntity
  8
0
 62
7
420
16777215
370
-1
 48
1.0
  6
BYLAYER
100
AcDbLine
 10
98.9241310000000311
 20
94.7032502500000533
 30
0.0
 11
98.9241310000000311
 21
119.3158702500000601
 31
0.0
  0
LINE
  5
1C1
100
AcDbEntity
  8
0
 62
7
420
16777215
370
-1
 48
1.0
  6
BYLAYER
100
AcDbLine
 10
98.9241310000000311
 20
119.3158702500000601
 30
0.0
 11
98.9241310000000311
 21
119.3158702500000601
 31
0.0
  0
SPLINE
  5
1C2
100
AcDbEntity
  8
0
 62
7
420
16777215
370
-1
 48
1.0
  6
BYLAYER
100
AcDbSpline
 70
8
 71
3
 72
8
 73
4
 74
0
 40
0.0
 40
0.0
 40
0.0
 40
0.0
 40
1.0
 40
1.0
 40
1.0
 40
1.0
 10
106.5250870000000276
 20
106.4465262500000478
 30
0.0
 10
110.9891420000000295
 20
106.4465262500000478
 30
0.0
 10
113.482576000000023
 20
108.7388782500000559
 30
0.0
 10
113.482576000000023
 20
112.3583812500000505
 30
0.0
  0
SPLINE
  5
1C3
100
AcDbEntity
  8
0
 62
7
420
16777215
370
-1
 48
1.0
  6
BYLAYER
100
AcDbSpline
 70
8
 71
3
 72
8
 73
4
 74
0
 40
0.0
 40
0.0
 40
0.0
 40
0.0
 40
1.0
 40
1.0
 40
1.0
 40
1.0
 10
113.482576000000023
 20
112.3583812500000505
 30
0.0
 10
113.482576000000023
 20
116.098534250000057
 30
0.0
 10
110.9891420000000295
 20
118.5919702500000597
 30
0.0
 10
106.5250870000000276
 20
118.5919702500000597
 30
0.0
  0
LINE
  5
1C4
100
AcDbEntity
  8
0
 62
7
420
16777215
370
-1
 48
1.0
  6
BYLAYER
100
AcDbLine
 10
106.5250870000000276
 20
118.5919702500000597
 30
0.0
 11
99.6480310000000316
 21
118.5919702500000597
 31
0.0
  0
LINE
  5
1C5
100
AcDbEntity
  8
0
 62
7
420
16777215
370
-1
 48
1.0
  6
BYLAYER
100
AcDbLine
 10
99.6480310000000316
 20
118.5919702500000597
 30
0.0
 11
99.6480310000000316
 21
106.4465262500000478
 31
0.0
  0
LINE
  5
1C6
100
AcDbEntity
  8
0
 62
7
420
16777215
370
-1
 48
1.0
  6
BYLAYER
100
AcDbLine
 10
99.6480310000000316
 20
106.4465262500000478
 30
0.0
 11
106.5250870000000276
 21
106.4465262500000478
 31
0.0
  0
LINE
  5
1C7
100
AcDbEntity
  8
0
 62
7
420
16777215
370
-1
 48
1.0
  6
BYLAYER
100
AcDbLine
 10
106.5250870000000276
 20
106.4465262500000478
 30
0.0
 11
106.5250870000000276
 21
106.4465262500000478
 31
0.0
  0
LINE
  5
1C8
100
AcDbEntity
  8
0
 62
7
420
16777215
370
-1
 48
1.0
  6
BYLAYER
100
AcDbLine
 10
102.9458010000000314
 20
103.2694062500000598
 30
0.0
 11
105.4392370000000341
 21
103.2694062500000598
 31
0.0
  0
LINE
  5
1C9
100
AcDbEntity
  8
0
 62
7
420
16777215
370
-1
 48
1.0
  6
BYLAYER
100
AcDbLine
 10
105.4392370000000341
 20
103.2694062500000598
 30
0.0
 11
110.2652400000000341
 21
94.7032502500000533
 31
0.0
  0
LINE
  5
1CA
100
AcDbEntity
  8
0
 62
7
420
16777215
370
-1
 48
1.0
  6
BYLAYER
100
AcDbLine
 10
110.2652400000000341
 20
94.7032502500000533
 30
0.0
 11
113.8043090000000319
 21
94.7032502500000533
 31
0.0
  0
LINE
  5
1CB
100
AcDbEntity
  8
0
 62
7
420
16777215
370
-1
 48
1.0
  6
BYLAYER
100
AcDbLine
 10
113.8043090000000319
 20
94.7032502500000533
 30
0.0
 11
107.4902900000000301
 21
105.7628422500000482
 31
0.0
  0
SPLINE
  5
1CC
100
AcDbEntity
  8
0
 62
7
420
16777215
370
-1
 48
1.0
  6
BYLAYER
100
AcDbSpline
 70
8
 71
3
 72
8
 73
4
 74
0
 40
0.0
 40
0.0
 40
0.0
 40
0.0
 40
1.0
 40
1.0
 40
1.0
 40
1.0
 10
107.4902900000000301
 20
105.7628422500000482
 30
0.0
 10
107.0479030000000336
 20
105.7226252500000498
 30
0.0
 10
106.8468200000000223
 20
105.7226252500000498
 30
0.0
 10
106.5250870000000276
 20
105.7226252500000498
 30
0.0
  0
LINE
  5
1CD
100
AcDbEntity
  8
0
 62
7
420
16777215
370
-1
 48
1.0
  6
BYLAYER
100
AcDbLine
 10
106.5250870000000276
 20
105.7226252500000498
 30
0.0
 11
99.6480310000000316
 21
105.7226252500000498
 31
0.0
  0
LINE
  5
1CE
100
AcDbEntity
  8
0
 62
7
420
16777215
370
-1
 48
1.0
  6
BYLAYER
100
AcDbLine
 10
99.6480310000000316
 20
105.7226252500000498
 30
0.0
 11
99.6480310000000316
 21
94.7032502500000533
 31
0.0
  0
LINE
  5
1CF
100
AcDbEntity
  8
0
 62
7
420
16777215
370
-1
 48
1.0
  6
BYLAYER
100
AcDbLine
 10
99.6480310000000316
 20
94.7032502500000533
 30
0.0
 11
102.9458010000000314
 21
94.7032502500000533
 31
0.0
  0
LINE
  5
1D0
100
AcDbEntity
  8
0
 62
7
420
16777215
370
-1
 48
1.0
  6
BYLAYER
100
AcDbLine
 10
102.9458010000000314
 20
94.7032502500000533
 30
0.0
 11
102.9458010000000314
 21
103.2694062500000598
 31
0.0
  0
LINE
  5
1D1
100
AcDbEntity
  8
0
 62
7
420
16777215
370
-1
 48
1.0
  6
BYLAYER
100
AcDbLine
 10
102.9458010000000314
 20
103.2694062500000598
 30
0.0
 11
102.9458010000000314
 21
103.2694062500000598
 31
0.0
  0
LINE
  5
1D2
100
AcDbEntity
  8
0
 62
7
420
16777215
370
-1
 48
1.0
  6
BYLAYER
100
AcDbLine
 10
102.9458010000000314
 20
108.8595282500000536
 30
0.0
 11
102.9458010000000314
 21
115.8572342500000474
 31
0.0
  0
LINE
  5
1D3
100
AcDbEntity
  8
0
 62
7
420
16777215
370
-1
 48
1.0
  6
BYLAYER
100
AcDbLine
 10
102.9458010000000314
 20
115.8572342500000474
 30
0.0
 11
106.3240030000000331
 21
115.8572342500000474
 31
0.0
  0
SPLINE
  5
1D4
100
AcDbEntity
  8
0
 62
7
420
16777215
370
-1
 48
1.0
  6
BYLAYER
100
AcDbSpline
 70
8
 71
3
 72
8
 73
4
 74
0
 40
0.0
 40
0.0
 40
0.0
 40
0.0
 40
1.0
 40
1.0
 40
1.0
 40
1.0
 10
106.3240030000000331
 20
115.8572342500000474
 30
0.0
 10
108.8174400000000333
 20
115.8572342500000474
 30
0.0
 10
110.1445900000000222
 20
114.6105162500000603
 30
0.0
 10
110.1445900000000222
 20
112.3583812500000505
 30
0.0
  0
SPLINE
  5
1D5
100
AcDbEntity
  8
0
 62
7
420
16777215
370
-1
 48
1.0
  6
BYLAYER
100
AcDbSpline
 70
8
 71
3
 72
8
 73
4
 74
0
 40
0.0
 40
0.0
 40
0.0
 40
0.0
 40
1.0
 40
1.0
 40
1.0
 40
1.0
 10
110.1445900000000222
 20
112.3583812500000505
 30
0.0
 10
110.1445900000000222
 20
110.1062462500000549
 30
0.0
 10
108.8174400000000333
 20
108.8595282500000536
 30
0.0
 10
106.3240030000000331
 20
108.8595282500000536
 30
0.0
  0
LINE
  5
1D6
100
AcDbEntity
  8
0
 62
7
420
16777215
370
-1
 48
1.0
  6
BYLAYER
100
AcDbLine
 10
106.3240030000000331
 20
108.8595282500000536
 30
0.0
 11
102.9458010000000314
 21
108.8595282500000536
 31
0.0
  0
LINE
  5
1D7
100
AcDbEntity
  8
0
 62
7
420
16777215
370
-1
 48
1.0
  6
BYLAYER
100
AcDbLine
 10
102.9458010000000314
 20
108.8595282500000536
 30
0.0
 11
102.9458010000000314
 21
108.8595282500000536
 31
0.0
  0
LINE
  5
1D8
100
AcDbEntity
  8
0
 62
7
420
16777215
370
-1
 48
1.0
  6
BYLAYER
100
AcDbLine
 10
120.9019300000000214
 20
94.7032502500000533
 30
0.0
 11
124.0790490000000261
 21
94.7032502500000533
 31
0.0
  0
LINE
  5
1D9
100
AcDbEntity
  8
0
 62
7
420
16777215
370
-1
 48
1.0
  6
BYLAYER
100
AcDbLine
 10
124.0790490000000261
 20
94.7032502500000533
 30
0.0
 11
125.2855490000000316
 21
115.2942002500000598
 31
0.0
  0
LINE
  5
1DA
100
AcDbEntity
  8
0
 62
7
420
16777215
370
-1
 48
1.0
  6
BYLAYER
100
AcDbLine
 10
125.2855490000000316
 20
115.2942002500000598
 30
0.0
 11
136.0234080000000176
 21
103.3498402500000566
 31
0.0
  0
LINE
  5
1DB
100
AcDbEntity
  8
0
 62
7
420
16777215
370
-1
 48
1.0
  6
BYLAYER
100
AcDbLine
 10
136.0234080000000176
 20
103.3498402500000566
 30
0.0
 11
146.4797500000000241
 21
115.3344172500000582
 31
0.0
  0
LINE
  5
1DC
100
AcDbEntity
  8
0
 62
7
420
16777215
370
-1
 48
1.0
  6
BYLAYER
100
AcDbLine
 10
146.4797500000000241
 20
115.3344172500000582
 30
0.0
 11
147.6460360000000378
 21
94.7032502500000533
 31
0.0
  0
LINE
  5
1DD
100
AcDbEntity
  8
0
 62
7
420
16777215
370
-1
 48
1.0
  6
BYLAYER
100
AcDbLine
 10
147.6460360000000378
 20
94.7032502500000533
 30
0.0
 11
150.8633720000000267
 21
94.7032502500000533
 31
0.0
  0
LINE
  5
1DE
100
AcDbEntity
  8
0
 62
7
420
16777215
370
-1
 48
1.0
  6
BYLAYER
100
AcDbLine
 10
150.8633720000000267
 20
94.7032502500000533
 30
0.0
 11
149.2547020000000373
 21
122.3321232500000519
 31
0.0
  0
SPLINE
  5
1DF
100
AcDbEntity
  8
0
 62
7
420
16777215
370
-1
 48
1.0
  6
BYLAYER
100
AcDbSpline
 70
8
 71
3
 72
8
 73
4
 74
0
 40
0.0
 40
0.0
 40
0.0
 40
0.0
 40
1.0
 40
1.0
 40
1.0
 40
1.0
 10
149.2547020000000373
 20
122.3321232500000519
 30
0.0
 10
149.2144860000000222
 20
122.61364025000006
 30
0.0
 10
149.0536190000000261
 20
122.5734232500000473
 30
0.0
 10
148.89275200000003
 20
122.3723392500000529
 30
0.0
  0
LINE
  5
1E0
100
AcDbEntity
  8
0
 62
7
420
16777215
370
-1
 48
1.0
  6
BYLAYER
100
AcDbLine
 10
148.89275200000003
 20
122.3723392500000529
 30
0.0
 11
135.9831910000000335
 21
107.6530272500000507
 31
0.0
  0
LINE
  5
1E1
100
AcDbEntity
  8
0
 62
7
420
16777215
370
-1
 48
1.0
  6
BYLAYER
100
AcDbLine
 10
135.9831910000000335
 20
107.6530272500000507
 30
0.0
 11
122.8725470000000257
 21
122.3723392500000529
 31
0.0
  0
SPLINE
  5
1E2
100
AcDbEntity
  8
0
 62
7
420
16777215
370
-1
 48
1.0
  6
BYLAYER
100
AcDbSpline
 70
8
 71
3
 72
8
 73
4
 74
0
 40
0.0
 40
0.0
 40
0.0
 40
0.0
 40
1.0
 40
1.0
 40
1.0
 40
1.0
 10
122.8725470000000257
 20
122.3723392500000529
 30
0.0
 10
122.7116800000000296
 20
122.5734232500000473
 30
0.0
 10
122.5508130000000335
 20
122.61364025000006
 30
0.0
 10
122.5105970000000326
 20
122.3321232500000519
 30
0.0
  0
LINE
  5
1E3
100
AcDbEntity
  8
0
 62
7
420
16777215
370
-1
 48
1.0
  6
BYLAYER
100
AcDbLine
 10
122.5105970000000326
 20
122.3321232500000519
 30
0.0
 11
120.9019300000000214
 21
94.7032502500000533
 31
0.0
  0
LINE
  5
1E4
100
AcDbEntity
  8
0
 62
7
420
16777215
370
-1
 48
1.0
  6
BYLAYER
100
AcDbLine
 10
120.9019300000000214
 20
94.7032502500000533
 30
0.0
 11
120.9019300000000214
 21
94.7032502500000533
 31
0.0
  0
LINE
  5
1E5
100
AcDbEntity
  8
0
 62
7
420
16777215
370
-1
 48
1.0
  6
BYLAYER
100
AcDbLine
 10
136.0234080000000176
 20
102.223772250000053
 30
0.0
 11
125.9290160000000327
 21
113.524665250000055
 31
0.0
  0
LINE
  5
1E6
100
AcDbEntity
  8
0
 62
7
420
16777215
370
-1
 48
1.0
  6
BYLAYER
100
AcDbLine
 10
125.9290160000000327
 20
113.524665250000055
 30
0.0
 11
124.8029490000000266
 21
94.7032502500000533
 31
0.0
  0
LINE
  5
1E7
100
AcDbEntity
  8
0
 62
7
420
16777215
370
-1
 48
1.0
  6
BYLAYER
100
AcDbLine
 10
124.8029490000000266
 20
94.7032502500000533
 30
0.0
 11
127.9398520000000303
 21
94.7032502500000533
 31
0.0
  0
LINE
  5
1E8
100
AcDbEntity
  8
0
 62
7
420
16777215
370
-1
 48
1.0
  6
BYLAYER
100
AcDbLine
 10
127.9398520000000303
 20
94.7032502500000533
 30
0.0
 11
128.5833190000000172
 21
106.2454422500000533
 31
0.0
  0
LINE
  5
1E9
100
AcDbEntity
  8
0
 62
7
420
16777215
370
-1
 48
1.0
  6
BYLAYER
100
AcDbLine
 10
128.5833190000000172
 20
106.2454422500000533
 30
0.0
 11
135.8223250000000348
 21
98.1618862500000517
 31
0.0
  0
SPLINE
  5
1EA
100
AcDbEntity
  8
0
 62
7
420
16777215
370
-1
 48
1.0
  6
BYLAYER
100
AcDbSpline
 70
8
 71
3
 72
8
 73
4
 74
0
 40
0.0
 40
0.0
 40
0.0
 40
0.0
 40
1.0
 40
1.0
 40
1.0
 40
1.0
 10
135.8223250000000348
 20
98.1618862500000517
 30
0.0
 10
135.9429750000000183
 20
98.041236250000054
 30
0.0
 10
136.0636250000000302
 20
98.041236250000054
 30
0.0
 10
136.1842750000000422
 20
98.1618862500000517
 30
0.0
  0
LINE
  5
1EB
100
AcDbEntity
  8
0
 62
7
420
16777215
370
-1
 48
1.0
  6
BYLAYER
100
AcDbLine
 10
136.1842750000000422
 20
98.1618862500000517
 30
0.0
 11
143.1417630000000258
 21
106.2052262500000523
 31
0.0
  0
LINE
  5
1EC
100
AcDbEntity
  8
0
 62
7
420
16777215
370
-1
 48
1.0
  6
BYLAYER
100
AcDbLine
 10
143.1417630000000258
 20
106.2052262500000523
 30
0.0
 11
143.7852330000000336
 21
94.7032502500000533
 31
0.0
  0
LINE
  5
1ED
100
AcDbEntity
  8
0
 62
7
420
16777215
370
-1
 48
1.0
  6
BYLAYER
100
AcDbLine
 10
143.7852330000000336
 20
94.7032502500000533
 30
0.0
 11
146.9221360000000232
 21
94.7032502500000533
 31
0.0
  0
LINE
  5
1EE
100
AcDbEntity
  8
0
 62
7
420
16777215
370
-1
 48
1.0
  6
BYLAYER
100
AcDbLine
 10
146.9221360000000232
 20
94.7032502500000533
 30
0.0
 11
145.8362830000000372
 21
113.4844482500000566
 31
0.0
  0
LINE
  5
1EF
100
AcDbEntity
  8
0
 62
7
420
16777215
370
-1
 48
1.0
  6
BYLAYER
100
AcDbLine
 10
145.8362830000000372
 20
113.4844482500000566
 30
0.0
 11
136.0234080000000176
 21
102.223772250000053
 31
0.0
  0
LINE
  5
1F0
100
AcDbEntity
  8
0
 62
7
420
16777215
370
-1
 48
1.0
  6
BYLAYER
100
AcDbLine
 10
136.0234080000000176
 20
102.223772250000053
 30
0.0
 11
136.0234080000000176
 21
102.223772250000053
 31
0.0
  0
LINE
  5
1F1
100
AcDbEntity
  8
0
 62
7
420
16777215
370
-1
 48
1.0
  6
BYLAYER
100
AcDbLine
 10
154.8517340000000218
 20
94.7032502500000533
 30
0.0
 11
174.5981340000000159
 21
94.7032502500000533
 31
0.0
  0
LINE
  5
1F2
100
AcDbEntity
  8
0
 62
7
420
16777215
370
-1
 48
1.0
  6
BYLAYER
100
AcDbLine
 10
174.5981340000000159
 20
94.7032502500000533
 30
0.0
 11
174.5981340000000159
 21
97.3977692500000529
 31
0.0
  0
LINE
  5
1F3
100
AcDbEntity
  8
0
 62
7
420
16777215
370
-1
 48
1.0
  6
BYLAYER
100
AcDbLine
 10
174.5981340000000159
 20
97.3977692500000529
 30
0.0
 11
158.1495030000000384
 21
97.3977692500000529
 31
0.0
  0
LINE
  5
1F4
100
AcDbEntity
  8
0
 62
7
420
16777215
370
-1
 48
1.0
  6
BYLAYER
100
AcDbLine
 10
158.1495030000000384
 20
97.3977692500000529
 30
0.0
 11
158.1495030000000384
 21
119.3158702500000601
 31
0.0
  0
LINE
  5
1F5
100
AcDbEntity
  8
0
 62
7
420
16777215
370
-1
 48
1.0
  6
BYLAYER
100
AcDbLine
 10
158.1495030000000384
 20
119.3158702500000601
 30
0.0
 11
174.0351010000000258
 21
119.3158702500000601
 31
0.0
  0
LINE
  5
1F6
100
AcDbEntity
  8
0
 62
7
420
16777215
370
-1
 48
1.0
  6
BYLAYER
100
AcDbLine
 10
174.0351010000000258
 20
119.3158702500000601
 30
0.0
 11
174.0351010000000258
 21
122.0506062500000581
 31
0.0
  0
LINE
  5
1F7
100
AcDbEntity
  8
0
 62
7
420
16777215
370
-1
 48
1.0
  6
BYLAYER
100
AcDbLine
 10
174.0351010000000258
 20
122.0506062500000581
 30
0.0
 11
154.8517340000000218
 21
122.0506062500000581
 31
0.0
  0
LINE
  5
1F8
100
AcDbEntity
  8
0
 62
7
420
16777215
370
-1
 48
1.0
  6
BYLAYER
100
AcDbLine
 10
154.8517340000000218
 20
122.0506062500000581
 30
0.0
 11
154.8517340000000218
 21
94.7032502500000533
 31
0.0
  0
LINE
  5
1F9
100
AcDbEntity
  8
0
 62
7
420
16777215
370
-1
 48
1.0
  6
BYLAYER
100
AcDbLine
 10
154.8517340000000218
 20
94.7032502500000533
 30
0.0
 11
154.8517340000000218
 21
94.7032502500000533
 31
0.0
  0
LINE
  5
1FA
100
AcDbEntity
  8
0
 62
7
420
16777215
370
-1
 48
1.0
  6
BYLAYER
100
AcDbLine
 10
174.5981340000000159
 20
100.8564052500000514
 30
0.0
 11
162.1711730000000387
 21
100.8564052500000514
 31
0.0
  0
LINE
  5
1FB
100
AcDbEntity
  8
0
 62
7
420
16777215
370
-1
 48
1.0
  6
BYLAYER
100
AcDbLine
 10
162.1711730000000387
 20
100.8564052500000514
 30
0.0
 11
162.1711730000000387
 21
105.5617582500000537
 31
0.0
  0
LINE
  5
1FC
100
AcDbEntity
  8
0
 62
7
420
16777215
370
-1
 48
1.0
  6
BYLAYER
100
AcDbLine
 10
162.1711730000000387
 20
105.5617582500000537
 30
0.0
 11
172.0644810000000291
 21
105.5617582500000537
 31
0.0
  0
LINE
  5
1FD
100
AcDbEntity
  8
0
 62
7
420
16777215
370
-1
 48
1.0
  6
BYLAYER
100
AcDbLine
 10
172.0644810000000291
 20
105.5617582500000537
 30
0.0
 11
172.0644810000000291
 21
108.0954112500000548
 31
0.0
  0
LINE
  5
1FE
100
AcDbEntity
  8
0
 62
7
420
16777215
370
-1
 48
1.0
  6
BYLAYER
100
AcDbLine
 10
172.0644810000000291
 20
108.0954112500000548
 30
0.0
 11
158.8734030000000246
 21
108.0954112500000548
 31
0.0
  0
LINE
  5
1FF
100
AcDbEntity
  8
0
 62
7
420
16777215
370
-1
 48
1.0
  6
BYLAYER
100
AcDbLine
 10
158.8734030000000246
 20
108.0954112500000548
 30
0.0
 11
158.8734030000000246
 21
98.1216692500000534
 31
0.0
  0
LINE
  5
200
100
AcDbEntity
  8
0
 62
7
420
16777215
370
-1
 48
1.0
  6
BYLAYER
100
AcDbLine
 10
158.8734030000000246
 20
98.1216692500000534
 30
0.0
 11
174.5981340000000159
 21
98.1216692500000534
 31
0.0
  0
LINE
  5
201
100
AcDbEntity
  8
0
 62
7
420
16777215
370
-1
 48
1.0
  6
BYLAYER
100
AcDbLine
 10
174.5981340000000159
 20
98.1216692500000534
 30
0.0
 11
174.5981340000000159
 21
100.8564052500000514
 31
0.0
  0
LINE
  5
202
100
AcDbEntity
  8
0
 62
7
420
16777215
370
-1
 48
1.0
  6
BYLAYER
100
AcDbLine
 10
174.5981340000000159
 20
100.8564052500000514
 30
0.0
 11
174.5981340000000159
 21
100.8564052500000514
 31
0.0
  0
LINE
  5
203
100
AcDbEntity
  8
0
 62
7
420
16777215
370
-1
 48
1.0
  6
BYLAYER
100
AcDbLine
 10
172.0644810000000291
 20
111.3931802500000572
 30
0.0
 11
162.1711730000000387
 21
111.3931802500000572
 31
0.0
  0
LINE
  5
204
100
AcDbEntity
  8
0
 62
7
420
16777215
370
-1
 48
1.0
  6
BYLAYER
100
AcDbLine
 10
162.1711730000000387
 20
111.3931802500000572
 30
0.0
 11
162.1711730000000387
 21
115.8974502500000483
 31
0.0
  0
LINE
  5
205
100
AcDbEntity
  8
0
 62
7
420
16777215
370
-1
 48
1.0
  6
BYLAYER
100
AcDbLine
 10
162.1711730000000387
 20
115.8974502500000483
 30
0.0
 11
174.0351010000000258
 21
115.8974502500000483
 31
0.0
  0
LINE
  5
206
100
AcDbEntity
  8
0
 62
7
420
16777215
370
-1
 48
1.0
  6
BYLAYER
100
AcDbLine
 10
174.0351010000000258
 20
115.8974502500000483
 30
0.0
 11
174.0351010000000258
 21
118.5919702500000597
 31
0.0
  0
LINE
  5
207
100
AcDbEntity
  8
0
 62
7
420
16777215
370
-1
 48
1.0
  6
BYLAYER
100
AcDbLine
 10
174.0351010000000258
 20
118.5919702500000597
 30
0.0
 11
158.8734030000000246
 21
118.5919702500000597
 31
0.0
  0
LINE
  5
208
100
AcDbEntity
  8
0
 62
7
420
16777215
370
-1
 48
1.0
  6
BYLAYER
100
AcDbLine
 10
158.8734030000000246
 20
118.5919702500000597
 30
0.0
 11
158.8734030000000246
 21
108.8193112500000552
 31
0.0
  0
LINE
  5
209
100
AcDbEntity
  8
0
 62
7
420
16777215
370
-1
 48
1.0
  6
BYLAYER
100
AcDbLine
 10
158.8734030000000246
 20
108.8193112500000552
 30
0.0
 11
172.0644810000000291
 21
108.8193112500000552
 31
0.0
  0
LINE
  5
20A
100
AcDbEntity
  8
0
 62
7
420
16777215
370
-1
 48
1.0
  6
BYLAYER
100
AcDbLine
 10
172.0644810000000291
 20
108.8193112500000552
 30
0.0
 11
172.0644810000000291
 21
111.3931802500000572
 31
0.0
  0
LINE
  5
20B
100
AcDbEntity
  8
0
 62
7
420
16777215
370
-1
 48
1.0
  6
BYLAYER
100
AcDbLine
 10
172.0644810000000291
 20
111.3931802500000572
 30
0.0
 11
172.0644810000000291
 21
111.3931802500000572
 31
0.0
  0
LINE
  5
20C
100
AcDbEntity
  8
0
 62
7
420
16777215
370
-1
 48
1.0
  6
BYLAYER
100
AcDbLine
 10
167.6406450000000348
 20
123.7397072500000519
 30
0.0
 11
169.4695252701258994
 21
127.2434575658862173
 31
0.0
  0
LINE
  5
20D
100
AcDbEntity
  8
0
 62
7
420
16777215
370
-1
 48
1.0
  6
BYLAYER
100
AcDbLine
 10
169.4695252701258994
 20
127.2434575658862315
 30
0.0
 11
166.6188830526909044
 21
127.2434575658862315
 31
0.0
  0
LINE
  5
20E
100
AcDbEntity
  8
0
 62
7
420
16777215
370
-1
 48
1.0
  6
BYLAYER
100
AcDbLine
 10
166.6188830526909044
 20
127.2434575658862173
 30
0.0
 11
165.3482920000000149
 21
123.7397072500000519
 31
0.0
  0
LINE
  5
20F
100
AcDbEntity
  8
0
 62
7
420
16777215
370
-1
 48
1.0
  6
BYLAYER
100
AcDbLine
 10
165.3482920000000149
 20
123.7397072500000519
 30
0.0
 11
167.6406450000000348
 21
123.7397072500000519
 31
0.0
  0
LINE
  5
210
100
AcDbEntity
  8
0
 62
7
420
16777215
370
-1
 48
1.0
  6
BYLAYER
100
AcDbLine
 10
167.6406450000000348
 20
123.7397072500000519
 30
0.0
 11
167.6406450000000348
 21
123.7397072500000519
 31
0.0
  0
LINE
  5
211
100
AcDbEntity
  8
0
 62
7
420
16777215
370
-1
 48
1.0
  6
BYLAYER
100
AcDbLine
 10
162.2918250000000171
 20
123.7397072500000519
 30
0.0
 11
164.6243920000000287
 21
123.7397072500000519
 31
0.0
  0
LINE
  5
212
100
AcDbEntity
  8
0
 62
7
420
16777215
370
-1
 48
1.0
  6
BYLAYER
100
AcDbLine
 10
164.6243920000000287
 20
123.7397072500000519
 30
0.0
 11
165.8949830526909182
 21
127.2434575658862599
 31
0.0
  0
LINE
  5
213
100
AcDbEntity
  8
0
 62
7
420
16777215
370
-1
 48
1.0
  6
BYLAYER
100
AcDbLine
 10
165.8949830526909182
 20
127.2434575658862457
 30
0.0
 11
163.0618794726653675
 21
127.2434575658862315
 31
0.0
  0
LINE
  5
214
100
AcDbEntity
  8
0
 62
7
420
16777215
370
-1
 48
1.0
  6
BYLAYER
100
AcDbLine
 10
163.0618794726653675
 20
127.2434575658862457
 30
0.0
 11
162.2918250000000171
 21
123.7397072500000519
 31
0.0
  0
LINE
  5
215
100
AcDbEntity
  8
0
 62
7
420
16777215
370
-1
 48
1.0
  6
BYLAYER
100
AcDbLine
 10
162.2918250000000171
 20
123.7397072500000519
 30
0.0
 11
162.2918250000000171
 21
123.7397072500000519
 31
0.0
  0
LINE
  5
216
100
AcDbEntity
  8
0
 62
256
370
-1
 48
1.0
  6
BYLAYER
100
AcDbLine
 10
51.1133000000000237
 20
157.5181337499999756
 30
0.0
 11
51.1133000000000237
 21
160.3333027500000014
 31
0.0
  0
LINE
  5
217
100
AcDbEntity
  8
0
 62
256
370
-1
 48
1.0
  6
BYLAYER
100
AcDbLine
 10
51.8133000000000266
 20
157.5181337499999472
 30
0.0
 11
51.8133000000000266
 21
160.333302749999973
 31
0.0
  0
LINE
  5
218
100
AcDbEntity
  8
0
 62
256
370
-1
 48
1.0
  6
BYLAYER
100
AcDbLine
 10
51.1133000000000237
 20
161.0572037499999851
 30
0.0
 11
51.1133000000000237
 21
163.8723727500000109
 31
0.0
  0
LINE
  5
219
100
AcDbEntity
  8
0
 62
256
370
-1
 48
1.0
  6
BYLAYER
100
AcDbLine
 10
51.8133000000000266
 20
161.0572037499999851
 30
0.0
 11
51.8133000000000266
 21
163.8723727500000109
 31
0.0
  0
LINE
  5
21A
100
AcDbEntity
  8
0
 62
256
370
-1
 48
1.0
  6
BYLAYER
100
AcDbLine
 10
58.6620880000000469
 20
149.5269607500000006
 30
0.0
 11
62.0402910000000318
 21
149.5269607500000006
 31
0.0
  0
LINE
  5
21B
100
AcDbEntity
  8
0
 62
256
370
-1
 48
1.0
  6
BYLAYER
100
AcDbLine
 10
58.6620880000000469
 20
150.2269607499999893
 30
0.0
 11
62.0402910000000318
 21
150.2269607499999893
 31
0.0
  0
LINE
  5
21C
100
AcDbEntity
  8
0
 62
256
370
-1
 48
1.0
  6
BYLAYER
100
AcDbLine
 10
62.7641940000000318
 20
150.2269607499999893
 30
0.0
 11
66.1423970000000168
 21
150.2269607499999893
 31
0.0
  0
LINE
  5
21D
100
AcDbEntity
  8
0
 62
256
370
-1
 48
1.0
  6
BYLAYER
100
AcDbLine
 10
62.7641940000000318
 20
149.5269607500000006
 30
0.0
 11
66.1423970000000168
 21
149.5269607500000006
 31
0.0
  0
LINE
  5
21E
100
AcDbEntity
  8
0
 62
256
370
-1
 48
1.0
  6
BYLAYER
100
AcDbLine
 10
51.8133000000000337
 20
138.6565027499999871
 30
0.0
 11
51.8133000000000337
 21
135.8413327499999923
 31
0.0
  0
LINE
  5
21F
100
AcDbEntity
  8
0
 62
256
370
-1
 48
1.0
  6
BYLAYER
100
AcDbLine
 10
51.1133000000000308
 20
138.6565027499999871
 30
0.0
 11
51.1133000000000308
 21
135.8413327499999923
 31
0.0
  0
LINE
  5
220
100
AcDbEntity
  8
0
 62
256
370
-1
 48
1.0
  6
BYLAYER
100
AcDbLine
 10
51.8133000000000337
 20
142.1955717499999707
 30
0.0
 11
51.8133000000000337
 21
139.3804027499999734
 31
0.0
  0
LINE
  5
221
100
AcDbEntity
  8
0
 62
256
370
-1
 48
1.0
  6
BYLAYER
100
AcDbLine
 10
51.1133000000000308
 20
142.1955717499999707
 30
0.0
 11
51.1133000000000308
 21
139.3804027499999734
 31
0.0
  0
LINE
  5
222
100
AcDbEntity
  8
0
 62
256
370
-1
 48
1.0
  6
BYLAYER
100
AcDbLine
 10
40.1624080000000276
 20
150.2269607499999893
 30
0.0
 11
36.7842050000000285
 21
150.2269607499999893
 31
0.0
  0
LINE
  5
223
100
AcDbEntity
  8
0
 62
256
370
-1
 48
1.0
  6
BYLAYER
100
AcDbLine
 10
44.2645110000000273
 20
149.5269607500000006
 30
0.0
 11
40.8863080000000281
 21
149.5269607500000006
 31
0.0
  0
LINE
  5
224
100
AcDbEntity
  8
0
 62
256
370
-1
 48
1.0
  6
BYLAYER
100
AcDbLine
 10
44.2645110000000273
 20
150.2269607499999893
 30
0.0
 11
40.8863080000000281
 21
150.2269607499999893
 31
0.0
  0
LINE
  5
225
100
AcDbEntity
  8
0
 62
256
370
-1
 48
1.0
  6
BYLAYER
100
AcDbLine
 10
40.1624080000000276
 20
149.5269607500000006
 30
0.0
 11
36.7842050000000285
 21
149.5269607500000006
 31
0.0
  0
ENDSEC
  0
SECTION
  2
OBJECTS
  0
DICTIONARY
  5
C
100
AcDbDictionary
280
0
281
1
  3
ACAD_GROUP
350
D
  3
ACAD_LAYOUT
350
1A
  3
ACAD_MLINESTYLE
350
17
  3
ACAD_PLOTSETTINGS
350
19
  3
ACAD_PLOTSTYLENAME
350
E
  3
AcDbVariableDictionary
350
226
  3
QCAD_OBJECTS
350
227
  0
DICTIONARY
  5
D
100
AcDbDictionary
280
0
281
1
  0
ACDBDICTIONARYWDFLT
  5
E
100
AcDbDictionary
281
1
  3
Normal
350
F
100
AcDbDictionaryWithDefault
340
F
  0
ACDBPLACEHOLDER
  5
F
  0
DICTIONARY
  5
17
100
AcDbDictionary
280
0
281
1
  3
Standard
350
18
  0
MLINESTYLE
  5
18
100
AcDbMlineStyle
  2
STANDARD
 70
0
  3

 62
256
 51
90.0
 52
90.0
 71
2
 49
0.5
 62
256
  6
BYLAYER
 49
-0.5
 62
256
  6
BYLAYER
  0
DICTIONARY
  5
19
100
AcDbDictionary
280
0
281
1
  0
DICTIONARY
  5
1A
100
AcDbDictionary
281
1
  3
Layout1
350
1E
  3
Layout2
350
26
  3
Model
350
22
  0
LAYOUT
  5
1E
100
AcDbPlotSettings
  1

  2
none_device
  4

  6

 40
0.0
 41
0.0
 42
0.0
 43
0.0
 44
0.0
 45
0.0
 46
0.0
 47
0.0
 48
0.0
 49
0.0
140
0.0
141
0.0
142
1.0
143
1.0
 70
688
 72
0
 73
0
 74
5
  7

 75
16
147
1.0
148
0.0
149
0.0
100
AcDbLayout
  1
Layout1
 70
1
 71
1
 10
0.0
 20
0.0
 11
420.0
 21
297.0
 12
0.0
 22
0.0
 32
0.0
 14
100000000000000000000.0
 24
100000000000000000000.0
 34
100000000000000000000.0
 15
-100000000000000000000.0
 25
-100000000000000000000.0
 35
-100000000000000000000.0
146
0.0
 13
0.0
 23
0.0
 33
0.0
 16
1.0
 26
0.0
 36
0.0
 17
0.0
 27
1.0
 37
0.0
 76
0
330
1B
  0
LAYOUT
  5
22
100
AcDbPlotSettings
  1

  2
none_device
  4

  6

 40
0.0
 41
0.0
 42
0.0
 43
0.0
 44
0.0
 45
0.0
 46
0.0
 47
0.0
 48
0.0
 49
0.0
140
0.0
141
0.0
142
1.0
143
1.0
 70
1712
 72
0
 73
0
 74
0
  7

 75
0
147
1.0
148
0.0
149
0.0
100
AcDbLayout
  1
Model
 70
1
 71
0
 10
0.0
 20
0.0
 11
12.0
 21
9.0
 12
0.0
 22
0.0
 32
0.0
 14
0.0
 24
0.0
 34
0.0
 15
0.0
 25
0.0
 35
0.0
146
0.0
 13
0.0
 23
0.0
 33
0.0
 16
1.0
 26
0.0
 36
0.0
 17
0.0
 27
1.0
 37
0.0
 76
0
330
1F
  0
LAYOUT
  5
26
100
AcDbPlotSettings
  1

  2
none_device
  4

  6

 40
0.0
 41
0.0
 42
0.0
 43
0.0
 44
0.0
 45
0.0
 46
0.0
 47
0.0
 48
0.0
 49
0.0
140
0.0
141
0.0
142
1.0
143
1.0
 70
688
 72
0
 73
0
 74
5
  7

 75
16
147
1.0
148
0.0
149
0.0
100
AcDbLayout
  1
Layout2
 70
1
 71
2
 10
0.0
 20
0.0
 11
12.0
 21
9.0
 12
0.0
 22
0.0
 32
0.0
 14
0.0
 24
0.0
 34
0.0
 15
0.0
 25
0.0
 35
0.0
146
0.0
 13
0.0
 23
0.0
 33
0.0
 16
1.0
 26
0.0
 36
0.0
 17
0.0
 27
1.0
 37
0.0
 76
0
330
23
  0
DICTIONARY
  5
226
100
AcDbDictionary
281
1
  3
DIMASSOC
350
229
  3
HIDETEXT
350
228
  0
DICTIONARYVAR
  5
228
100
DictionaryVariables
280
0
  1
2
  0
DICTIONARYVAR
  5
229
100
DictionaryVariables
280
0
  1
1
  0
DICTIONARY
  5
227
100
AcDbDictionary
281
1
  3
ColorSettings/BackgroundColor
350
22A
  3
ColorSettings/ColorMode
350
22B
  3
Grid/DisplayGrid00
350
22C
  3
Grid/DisplayGrid01
350
22D
  3
Grid/DisplayGrid02
350
22E
  3
Grid/DisplayGrid03
350
22F
  3
Grid/GridSpacingX00
350
230
  3
Grid/GridSpacingX01
350
231
  3
Grid/GridSpacingX02
350
232
  3
Grid/GridSpacingX03
350
233
  3
Grid/GridSpacingY00
350
234
  3
Grid/GridSpacingY01
350
235
  3
Grid/GridSpacingY02
350
236
  3
Grid/GridSpacingY03
350
237
  3
Grid/IsometricGrid00
350
238
  3
Grid/IsometricGrid01
350
239
  3
Grid/IsometricGrid02
350
23A
  3
Grid/IsometricGrid03
350
23B
  3
Grid/IsometricProjection00
350
23C
  3
Grid/IsometricProjection01
350
23D
  3
Grid/IsometricProjection02
350
23E
  3
Grid/IsometricProjection03
350
23F
  3
Grid/MetaGridSpacingX00
350
240
  3
Grid/MetaGridSpacingX01
350
241
  3
Grid/MetaGridSpacingX02
350
242
  3
Grid/MetaGridSpacingX03
350
243
  3
Grid/MetaGridSpacingY00
350
244
  3
Grid/MetaGridSpacingY01
350
245
  3
Grid/MetaGridSpacingY02
350
246
  3
Grid/MetaGridSpacingY03
350
247
  3
MultiPageSettings/Columns
350
248
  3
MultiPageSettings/GlueMarginsBottom
350
249
  3
MultiPageSettings/GlueMarginsLeft
350
24A
  3
MultiPageSettings/GlueMarginsRight
350
24B
  3
MultiPageSettings/GlueMarginsTop
350
24C
  3
MultiPageSettings/PrintCropMarks
350
24D
  3
MultiPageSettings/Rows
350
24E
  3
PageSettings/OffsetX
350
24F
  3
PageSettings/OffsetY
350
250
  3
PageSettings/PageOrientation
350
251
  3
PageSettings/PaperHeight
350
252
  3
PageSettings/PaperWidth
350
253
  3
PageSettings/Scale
350
254
  3
PageSettings/ShowPaperBorders
350
255
  3
QCADVersion
350
256
  3
UnitSettings/PaperUnit
350
257
  3
ViewportCenter
350
258
  3
ViewportHeight
350
259
  3
ViewportWidth
350
25A
  0
XRECORD
  5
22A
330
227
100
AcDbXrecord
280
1
1000
White
  0
XRECORD
  5
22B
330
227
100
AcDbXrecord
280
1
1000
FullColor
  0
XRECORD
  5
22C
330
227
100
AcDbXrecord
280
1
290
1
  0
XRECORD
  5
22D
330
227
100
AcDbXrecord
280
1
290
1
  0
XRECORD
  5
22E
330
227
100
AcDbXrecord
280
1
290
1
  0
XRECORD
  5
22F
330
227
100
AcDbXrecord
280
1
290
1
  0
XRECORD
  5
230
330
227
100
AcDbXrecord
280
1
1000
auto
  0
XRECORD
  5
231
330
227
100
AcDbXrecord
280
1
1000
auto
  0
XRECORD
  5
232
330
227
100
AcDbXrecord
280
1
1000
auto
  0
XRECORD
  5
233
330
227
100
AcDbXrecord
280
1
1000
auto
  0
XRECORD
  5
234
330
227
100
AcDbXrecord
280
1
1000
auto
  0
XRECORD
  5
235
330
227
100
AcDbXrecord
280
1
1000
auto
  0
XRECORD
  5
236
330
227
100
AcDbXrecord
280
1
1000
auto
  0
XRECORD
  5
237
330
227
100
AcDbXrecord
280
1
1000
auto
  0
XRECORD
  5
238
330
227
100
AcDbXrecord
280
1
290
0
  0
XRECORD
  5
239
330
227
100
AcDbXrecord
280
1
290
0
  0
XRECORD
  5
23A
330
227
100
AcDbXrecord
280
1
290
0
  0
XRECORD
  5
23B
330
227
100
AcDbXrecord
280
1
290
0
  0
XRECORD
  5
23C
330
227
100
AcDbXrecord
280
1
 90
65537
  0
XRECORD
  5
23D
330
227
100
AcDbXrecord
280
1
 90
65537
  0
XRECORD
  5
23E
330
227
100
AcDbXrecord
280
1
 90
65537
  0
XRECORD
  5
23F
330
227
100
AcDbXrecord
280
1
 90
65537
  0
XRECORD
  5
240
330
227
100
AcDbXrecord
280
1
1000
auto
  0
XRECORD
  5
241
330
227
100
AcDbXrecord
280
1
1000
auto
  0
XRECORD
  5
242
330
227
100
AcDbXrecord
280
1
1000
auto
  0
XRECORD
  5
243
330
227
100
AcDbXrecord
280
1
1000
auto
  0
XRECORD
  5
244
330
227
100
AcDbXrecord
280
1
1000
auto
  0
XRECORD
  5
245
330
227
100
AcDbXrecord
280
1
1000
auto
  0
XRECORD
  5
246
330
227
100
AcDbXrecord
280
1
1000
auto
  0
XRECORD
  5
247
330
227
100
AcDbXrecord
280
1
1000
auto
  0
XRECORD
  5
248
330
227
100
AcDbXrecord
280
1
 90
1
  0
XRECORD
  5
249
330
227
100
AcDbXrecord
280
1
 40
10.0
  0
XRECORD
  5
24A
330
227
100
AcDbXrecord
280
1
 40
10.0
  0
XRECORD
  5
24B
330
227
100
AcDbXrecord
280
1
 40
10.0
  0
XRECORD
  5
24C
330
227
100
AcDbXrecord
280
1
 40
10.0
  0
XRECORD
  5
24D
330
227
100
AcDbXrecord
280
1
290
0
  0
XRECORD
  5
24E
330
227
100
AcDbXrecord
280
1
 90
1
  0
XRECORD
  5
24F
330
227
100
AcDbXrecord
280
1
 40
0.0
  0
XRECORD
  5
250
330
227
100
AcDbXrecord
280
1
 40
0.0
  0
XRECORD
  5
251
330
227
100
AcDbXrecord
280
1
1000
Portrait
  0
XRECORD
  5
252
330
227
100
AcDbXrecord
280
1
 40
297.0
  0
XRECORD
  5
253
330
227
100
AcDbXrecord
280
1
 40
210.0
  0
XRECORD
  5
254
330
227
100
AcDbXrecord
280
1
1000
1:1
  0
XRECORD
  5
255
330
227
100
AcDbXrecord
280
1
290
1
  0
XRECORD
  5
256
330
227
100
AcDbXrecord
280
1
1000
3.18.0
  0
XRECORD
  5
257
330
227
100
AcDbXrecord
280
1
 90
4
  0
XRECORD
  5
259
330
227
100
AcDbXrecord
280
1
 40
160.1637729449648191
  0
XRECORD
  5
25A
330
227
100
AcDbXrecord
280
1
 40
318.6486803454331493
  0
ENDSEC
  0
EOF
