  0
SECTION
  2
HEADER
  9
$ACADVER
  1
AC1014
  9
$HANDSEED
  5
FFFF
  9
$MEASUREMENT
 70
     1
  0
ENDSEC
  0
SECTION
  2
TABLES
  0
TABLE
  2
VPORT
  5
8
330
0
100
AcDbSymbolTable
 70
     4
  0
VPORT
  5
2E
330
8
100
AcDbSymbolTableRecord
100
AcDbViewportTableRecord
  2
*ACTIVE
 70
     0
 10
0.0
 20
0.0
 11
1.0
 21
1.0
 12
210.0
 22
148.5
 13
0.0
 23
0.0
 14
10.0
 24
10.0
 15
10.0
 25
10.0
 16
0.0
 26
0.0
 36
1.0
 17
0.0
 27
0.0
 37
0.0
 40
341.0
 41
1.24
 42
50.0
 43
0.0
 44
0.0
 50
0.0
 51
0.0
 71
     0
 72
   100
 73
     1
 74
     3
 75
     0
 76
     0
 77
     0
 78
     0
  0
ENDTAB
  0
TABLE
  2
LTYPE
  5
5
330
0
100
AcDbSymbolTable
 70
     1
  0
LTYPE
  5
14
330
5
100
AcDbSymbolTableRecord
100
AcDbLinetypeTableRecord
  2
BYBLOCK
 70
     0
  3

 72
    65
 73
     0
 40
0.0
  0
LTYPE
  5
15
330
5
100
AcDbSymbolTableRecord
100
AcDbLinetypeTableRecord
  2
BYLAYER
 70
     0
  3

 72
    65
 73
     0
 40
0.0
  0
LTYPE
  5
16
330
5
100
AcDbSymbolTableRecord
100
AcDbLinetypeTableRecord
  2
CONTINUOUS
 70
     0
  3
Solid line
 72
    65
 73
     0
 40
0.0
  0
ENDTAB
  0
TABLE
  2
LAYER
  5
2
100
AcDbSymbolTable
 70
3
  0
LAYER
  5
50
100
AcDbSymbolTableRecord
100
AcDbLayerTableRecord
  2
0
 70
0
  6
CONTINUOUS
  0
LAYER
  5
51
100
AcDbSymbolTableRecord
100
AcDbLayerTableRecord
  2
Contour
 70
0
  6
CONTINUOUS
  0
LAYER
  5
52
100
AcDbSymbolTableRecord
100
AcDbLayerTableRecord
  2
Contenu
 70
0
  6
CONTINUOUS
  0
ENDTAB
  0
TABLE
  2
STYLE
  5
3
330
0
100
AcDbSymbolTable
 70
     1
  0
STYLE
  5
11
330
3
100
AcDbSymbolTableRecord
100
AcDbTextStyleTableRecord
  2
STANDARD
 70
     0
 40
0.0
 41
1.0
 50
0.0
 71
     0
 42
2.5
  3
txt
  4

  0
ENDTAB
  0
TABLE
  2
VIEW
  5
6
330
0
100
AcDbSymbolTable
 70
     0
  0
ENDTAB
  0
TABLE
  2
UCS
  5
7
330
0
100
AcDbSymbolTable
 70
     0
  0
ENDTAB
  0
TABLE
  2
APPID
  5
9
330
0
100
AcDbSymbolTable
 70
     2
  0
APPID
  5
12
330
9
100
AcDbSymbolTableRecord
100
AcDbRegAppTableRecord
  2
ACAD
 70
     0
  0
ENDTAB
  0
TABLE
  2
DIMSTYLE
  5
A
330
0
100
AcDbSymbolTable
 70
     1
  0
DIMSTYLE
105
27
330
A
100
AcDbSymbolTableRecord
100
AcDbDimStyleTableRecord
  2
ISO-25
 70
     0
  3

  4

  5

  6

  7

 40
1.0
 41
2.5
 42
0.625
 43
3.75
 44
1.25
 45
0.0
 46
0.0
 47
0.0
 48
0.0
140
2.5
141
2.5
142
0.0
143
0.03937007874016
144
1.0
145
0.0
146
1.0
147
0.625
 71
     0
 72
     0
 73
     0
 74
     0
 75
     0
 76
     0
 77
     1
 78
     8
170
     0
171
     3
172
     1
173
     0
174
     0
175
     0
176
     0
177
     0
178
     0
270
     2
271
     2
272
     2
273
     2
274
     3
340
11
275
     0
280
     0
281
     0
282
     0
283
     0
284
     8
285
     0
286
     0
287
     3
288
     0
  0
ENDTAB
  0
TABLE
  2
BLOCK_RECORD
  5
1
330
0
100
AcDbSymbolTable
 70
     1
  0
BLOCK_RECORD
  5
1F
330
1
100
AcDbSymbolTableRecord
100
AcDbBlockTableRecord
  2
*MODEL_SPACE
  0
BLOCK_RECORD
  5
1B
330
1
100
AcDbSymbolTableRecord
100
AcDbBlockTableRecord
  2
*PAPER_SPACE
  0
ENDTAB
  0
ENDSEC
  0
SECTION
  2
BLOCKS
  0
BLOCK
  5
20
330
1F
100
AcDbEntity
  8
0
100
AcDbBlockBegin
  2
*MODEL_SPACE
 70
     0
 10
0.0
 20
0.0
 30
0.0
  3
*MODEL_SPACE
  1

  0
ENDBLK
  5
21
330
1F
100
AcDbEntity
  8
0
100
AcDbBlockEnd
  0
BLOCK
  5
1C
330
1B
100
AcDbEntity
 67
     1
  8
0
100
AcDbBlockBegin
  2
*PAPER_SPACE
  1

  0
ENDBLK
  5
1D
330
1B
100
AcDbEntity
 67
     1
  8
0
100
AcDbBlockEnd
  0
ENDSEC
  0
SECTION
  2
ENTITIES
  0
SPLINE
  5
100
100
AcDbEntity
  8
Contour
 62
1
100
AcDbSpline
 70
8
 71
3
 72
8
 73
4
 74
0
 40
0
 40
0
 40
0
 40
0
 40
1
 40
1
 40
1
 40
1
 10
7.619891
 20
6.122371
 30
0.0
 10
7.619891
 20
6.657383
 30
0.0
 10
7.334466
 20
7.151755
 30
0.0
 10
6.871132
 20
7.419261
 30
0.0
  0
SPLINE
  5
101
100
AcDbEntity
  8
Contour
 62
1
100
AcDbSpline
 70
8
 71
3
 72
8
 73
4
 74
0
 40
0
 40
0
 40
0
 40
0
 40
1
 40
1
 40
1
 40
1
 10
6.871132
 20
7.419261
 30
0.0
 10
6.407798
 20
7.686767
 30
0.0
 10
5.836946
 20
7.686767
 30
0.0
 10
5.373612
 20
7.419261
 30
0.0
  0
SPLINE
  5
102
100
AcDbEntity
  8
Contour
 62
1
100
AcDbSpline
 70
8
 71
3
 72
8
 73
4
 74
0
 40
0
 40
0
 40
0
 40
0
 40
1
 40
1
 40
1
 40
1
 10
5.373612
 20
7.419261
 30
0.0
 10
4.910278
 20
7.151755
 30
0.0
 10
4.624852
 20
6.657383
 30
0.0
 10
4.624852
 20
6.122371
 30
0.0
  0
SPLINE
  5
103
100
AcDbEntity
  8
Contour
 62
1
100
AcDbSpline
 70
8
 71
3
 72
8
 73
4
 74
0
 40
0
 40
0
 40
0
 40
0
 40
1
 40
1
 40
1
 40
1
 10
4.624852
 20
6.122371
 30
0.0
 10
4.624852
 20
5.587359
 30
0.0
 10
4.910278
 20
5.092987
 30
0.0
 10
5.373612
 20
4.825481
 30
0.0
  0
SPLINE
  5
104
100
AcDbEntity
  8
Contour
 62
1
100
AcDbSpline
 70
8
 71
3
 72
8
 73
4
 74
0
 40
0
 40
0
 40
0
 40
0
 40
1
 40
1
 40
1
 40
1
 10
5.373612
 20
4.825481
 30
0.0
 10
5.836946
 20
4.557975
 30
0.0
 10
6.407798
 20
4.557975
 30
0.0
 10
6.871132
 20
4.825481
 30
0.0
  0
SPLINE
  5
105
100
AcDbEntity
  8
Contour
 62
1
100
AcDbSpline
 70
8
 71
3
 72
8
 73
4
 74
0
 40
0
 40
0
 40
0
 40
0
 40
1
 40
1
 40
1
 40
1
 10
6.871132
 20
4.825481
 30
0.0
 10
7.334466
 20
5.092987
 30
0.0
 10
7.619891
 20
5.587359
 30
0.0
 10
7.619891
 20
6.122371
 30
0.0
  0
LINE
  5
106
100
AcDbEntity
  8
Contour
 62
1
100
AcDbLine
 10
7.619891
 20
6.122371
 30
0.0
 11
7.619891
 21
6.122371
 31
0.0
  0
SPLINE
  5
107
100
AcDbEntity
  8
Contour
 62
1
100
AcDbSpline
 70
8
 71
3
 72
8
 73
4
 74
0
 40
0
 40
0
 40
0
 40
0
 40
1
 40
1
 40
1
 40
1
 10
7.619891
 20
153.877631
 30
0.0
 10
7.619891
 20
154.412643
 30
0.0
 10
7.334466
 20
154.907015
 30
0.0
 10
6.871132
 20
155.174521
 30
0.0
  0
SPLINE
  5
108
100
AcDbEntity
  8
Contour
 62
1
100
AcDbSpline
 70
8
 71
3
 72
8
 73
4
 74
0
 40
0
 40
0
 40
0
 40
0
 40
1
 40
1
 40
1
 40
1
 10
6.871132
 20
155.174521
 30
0.0
 10
6.407798
 20
155.442027
 30
0.0
 10
5.836946
 20
155.442027
 30
0.0
 10
5.373612
 20
155.174521
 30
0.0
  0
SPLINE
  5
109
100
AcDbEntity
  8
Contour
 62
1
100
AcDbSpline
 70
8
 71
3
 72
8
 73
4
 74
0
 40
0
 40
0
 40
0
 40
0
 40
1
 40
1
 40
1
 40
1
 10
5.373612
 20
155.174521
 30
0.0
 10
4.910278
 20
154.907015
 30
0.0
 10
4.624852
 20
154.412643
 30
0.0
 10
4.624852
 20
153.877631
 30
0.0
  0
SPLINE
  5
10a
100
AcDbEntity
  8
Contour
 62
1
100
AcDbSpline
 70
8
 71
3
 72
8
 73
4
 74
0
 40
0
 40
0
 40
0
 40
0
 40
1
 40
1
 40
1
 40
1
 10
4.624852
 20
153.877631
 30
0.0
 10
4.624852
 20
153.342619
 30
0.0
 10
4.910278
 20
152.848247
 30
0.0
 10
5.373612
 20
152.580741
 30
0.0
  0
SPLINE
  5
10b
100
AcDbEntity
  8
Contour
 62
1
100
AcDbSpline
 70
8
 71
3
 72
8
 73
4
 74
0
 40
0
 40
0
 40
0
 40
0
 40
1
 40
1
 40
1
 40
1
 10
5.373612
 20
152.580741
 30
0.0
 10
5.836946
 20
152.313235
 30
0.0
 10
6.407798
 20
152.313235
 30
0.0
 10
6.871132
 20
152.580741
 30
0.0
  0
SPLINE
  5
10c
100
AcDbEntity
  8
Contour
 62
1
100
AcDbSpline
 70
8
 71
3
 72
8
 73
4
 74
0
 40
0
 40
0
 40
0
 40
0
 40
1
 40
1
 40
1
 40
1
 10
6.871132
 20
152.580741
 30
0.0
 10
7.334466
 20
152.848247
 30
0.0
 10
7.619891
 20
153.342619
 30
0.0
 10
7.619891
 20
153.877631
 30
0.0
  0
LINE
  5
10d
100
AcDbEntity
  8
Contour
 62
1
100
AcDbLine
 10
7.619891
 20
153.877631
 30
0.0
 11
7.619891
 21
153.877631
 31
0.0
  0
SPLINE
  5
10e
100
AcDbEntity
  8
Contour
 62
1
100
AcDbSpline
 70
8
 71
3
 72
8
 73
4
 74
0
 40
0
 40
0
 40
0
 40
0
 40
1
 40
1
 40
1
 40
1
 10
128.419794
 20
6.122371
 30
0.0
 10
128.420123
 20
6.657602
 30
0.0
 10
128.134769
 20
7.152316
 30
0.0
 10
127.671300
 20
7.420027
 30
0.0
  0
SPLINE
  5
10f
100
AcDbEntity
  8
Contour
 62
1
100
AcDbSpline
 70
8
 71
3
 72
8
 73
4
 74
0
 40
0
 40
0
 40
0
 40
0
 40
1
 40
1
 40
1
 40
1
 10
127.671300
 20
7.420027
 30
0.0
 10
127.207831
 20
7.687737
 30
0.0
 10
126.636719
 20
7.687737
 30
0.0
 10
126.173250
 20
7.420027
 30
0.0
  0
SPLINE
  5
110
100
AcDbEntity
  8
Contour
 62
1
100
AcDbSpline
 70
8
 71
3
 72
8
 73
4
 74
0
 40
0
 40
0
 40
0
 40
0
 40
1
 40
1
 40
1
 40
1
 10
126.173250
 20
7.420027
 30
0.0
 10
125.709781
 20
7.152316
 30
0.0
 10
125.424428
 20
6.657602
 30
0.0
 10
125.424756
 20
6.122371
 30
0.0
  0
SPLINE
  5
111
100
AcDbEntity
  8
Contour
 62
1
100
AcDbSpline
 70
8
 71
3
 72
8
 73
4
 74
0
 40
0
 40
0
 40
0
 40
0
 40
1
 40
1
 40
1
 40
1
 10
125.424756
 20
6.122371
 30
0.0
 10
125.424428
 20
5.587140
 30
0.0
 10
125.709781
 20
5.092425
 30
0.0
 10
126.173250
 20
4.824715
 30
0.0
  0
SPLINE
  5
112
100
AcDbEntity
  8
Contour
 62
1
100
AcDbSpline
 70
8
 71
3
 72
8
 73
4
 74
0
 40
0
 40
0
 40
0
 40
0
 40
1
 40
1
 40
1
 40
1
 10
126.173250
 20
4.824715
 30
0.0
 10
126.636719
 20
4.557004
 30
0.0
 10
127.207831
 20
4.557004
 30
0.0
 10
127.671300
 20
4.824715
 30
0.0
  0
SPLINE
  5
113
100
AcDbEntity
  8
Contour
 62
1
100
AcDbSpline
 70
8
 71
3
 72
8
 73
4
 74
0
 40
0
 40
0
 40
0
 40
0
 40
1
 40
1
 40
1
 40
1
 10
127.671300
 20
4.824715
 30
0.0
 10
128.134769
 20
5.092425
 30
0.0
 10
128.420123
 20
5.587140
 30
0.0
 10
128.419794
 20
6.122371
 30
0.0
  0
LINE
  5
114
100
AcDbEntity
  8
Contour
 62
1
100
AcDbLine
 10
128.419794
 20
6.122371
 30
0.0
 11
128.419794
 21
6.122371
 31
0.0
  0
SPLINE
  5
115
100
AcDbEntity
  8
Contour
 62
1
100
AcDbSpline
 70
8
 71
3
 72
8
 73
4
 74
0
 40
0
 40
0
 40
0
 40
0
 40
1
 40
1
 40
1
 40
1
 10
128.419794
 20
153.877631
 30
0.0
 10
128.420123
 20
154.412862
 30
0.0
 10
128.134769
 20
154.907576
 30
0.0
 10
127.671300
 20
155.175287
 30
0.0
  0
SPLINE
  5
116
100
AcDbEntity
  8
Contour
 62
1
100
AcDbSpline
 70
8
 71
3
 72
8
 73
4
 74
0
 40
0
 40
0
 40
0
 40
0
 40
1
 40
1
 40
1
 40
1
 10
127.671300
 20
155.175287
 30
0.0
 10
127.207831
 20
155.442997
 30
0.0
 10
126.636719
 20
155.442997
 30
0.0
 10
126.173250
 20
155.175287
 30
0.0
  0
SPLINE
  5
117
100
AcDbEntity
  8
Contour
 62
1
100
AcDbSpline
 70
8
 71
3
 72
8
 73
4
 74
0
 40
0
 40
0
 40
0
 40
0
 40
1
 40
1
 40
1
 40
1
 10
126.173250
 20
155.175287
 30
0.0
 10
125.709781
 20
154.907576
 30
0.0
 10
125.424428
 20
154.412862
 30
0.0
 10
125.424756
 20
153.877631
 30
0.0
  0
SPLINE
  5
118
100
AcDbEntity
  8
Contour
 62
1
100
AcDbSpline
 70
8
 71
3
 72
8
 73
4
 74
0
 40
0
 40
0
 40
0
 40
0
 40
1
 40
1
 40
1
 40
1
 10
125.424756
 20
153.877631
 30
0.0
 10
125.424428
 20
153.342400
 30
0.0
 10
125.709781
 20
152.847685
 30
0.0
 10
126.173250
 20
152.579975
 30
0.0
  0
SPLINE
  5
119
100
AcDbEntity
  8
Contour
 62
1
100
AcDbSpline
 70
8
 71
3
 72
8
 73
4
 74
0
 40
0
 40
0
 40
0
 40
0
 40
1
 40
1
 40
1
 40
1
 10
126.173250
 20
152.579975
 30
0.0
 10
126.636719
 20
152.312265
 30
0.0
 10
127.207831
 20
152.312265
 30
0.0
 10
127.671300
 20
152.579975
 30
0.0
  0
SPLINE
  5
11a
100
AcDbEntity
  8
Contour
 62
1
100
AcDbSpline
 70
8
 71
3
 72
8
 73
4
 74
0
 40
0
 40
0
 40
0
 40
0
 40
1
 40
1
 40
1
 40
1
 10
127.671300
 20
152.579975
 30
0.0
 10
128.134769
 20
152.847685
 30
0.0
 10
128.420123
 20
153.342400
 30
0.0
 10
128.419794
 20
153.877631
 30
0.0
  0
LINE
  5
11b
100
AcDbEntity
  8
Contour
 62
1
100
AcDbLine
 10
128.419794
 20
153.877631
 30
0.0
 11
128.419794
 21
153.877631
 31
0.0
  0
SPLINE
  5
11c
100
AcDbEntity
  8
Contour
 62
1
100
AcDbSpline
 70
8
 71
3
 72
8
 73
4
 74
0
 40
0
 40
0
 40
0
 40
0
 40
1
 40
1
 40
1
 40
1
 10
126.922275
 20
0.132289
 30
0.0
 10
128.510943
 20
0.132289
 30
0.0
 10
130.034543
 20
0.763386
 30
0.0
 10
131.157900
 20
1.886744
 30
0.0
  0
SPLINE
  5
11d
100
AcDbEntity
  8
Contour
 62
1
100
AcDbSpline
 70
8
 71
3
 72
8
 73
4
 74
0
 40
0
 40
0
 40
0
 40
0
 40
1
 40
1
 40
1
 40
1
 10
131.157900
 20
1.886744
 30
0.0
 10
132.281258
 20
3.010102
 30
0.0
 10
132.912353
 20
4.533703
 30
0.0
 10
132.912352
 20
6.122371
 30
0.0
  0
SPLINE
  5
11e
100
AcDbEntity
  8
Contour
 62
1
100
AcDbSpline
 70
8
 71
3
 72
8
 73
4
 74
0
 40
0
 40
0
 40
0
 40
0
 40
1
 40
1
 40
1
 40
1
 10
132.912352
 20
153.877631
 30
0.0
 10
132.912351
 20
157.185858
 30
0.0
 10
130.230503
 20
159.867706
 30
0.0
 10
126.922275
 20
159.867707
 30
0.0
  0
SPLINE
  5
11f
100
AcDbEntity
  8
Contour
 62
1
100
AcDbSpline
 70
8
 71
3
 72
8
 73
4
 74
0
 40
0
 40
0
 40
0
 40
0
 40
1
 40
1
 40
1
 40
1
 10
6.122372
 20
159.867707
 30
0.0
 10
2.814144
 20
159.867707
 30
0.0
 10
0.132295
 20
157.185859
 30
0.0
 10
0.132294
 20
153.877631
 30
0.0
  0
SPLINE
  5
120
100
AcDbEntity
  8
Contour
 62
1
100
AcDbSpline
 70
8
 71
3
 72
8
 73
4
 74
0
 40
0
 40
0
 40
0
 40
0
 40
1
 40
1
 40
1
 40
1
 10
0.132294
 20
6.122371
 30
0.0
 10
0.132293
 20
4.533703
 30
0.0
 10
0.763388
 20
3.010102
 30
0.0
 10
1.886746
 20
1.886744
 30
0.0
  0
SPLINE
  5
121
100
AcDbEntity
  8
Contour
 62
1
100
AcDbSpline
 70
8
 71
3
 72
8
 73
4
 74
0
 40
0
 40
0
 40
0
 40
0
 40
1
 40
1
 40
1
 40
1
 10
1.886746
 20
1.886744
 30
0.0
 10
3.010103
 20
0.763385
 30
0.0
 10
4.533704
 20
0.132289
 30
0.0
 10
6.122372
 20
0.132289
 30
0.0
  0
LINE
  5
122
100
AcDbEntity
  8
Contour
 62
1
100
AcDbLine
 10
0.132294
 20
6.122371
 30
0.0
 11
0.132294
 21
153.877631
 31
0.0
  0
LINE
  5
123
100
AcDbEntity
  8
Contour
 62
1
100
AcDbLine
 10
132.912352
 20
6.122371
 30
0.0
 11
132.912352
 21
153.877631
 31
0.0
  0
LINE
  5
124
100
AcDbEntity
  8
Contour
 62
1
100
AcDbLine
 10
6.122372
 20
0.132289
 30
0.0
 11
126.922275
 21
0.132289
 31
0.0
  0
LINE
  5
125
100
AcDbEntity
  8
Contour
 62
1
100
AcDbLine
 10
6.122372
 20
159.867707
 30
0.0
 11
126.922275
 21
159.867707
 31
0.0
  0
LINE
  5
126
100
AcDbEntity
  8
Contenu
 62
7
100
AcDbLine
 10
28.675587
 20
132.445748
 30
0.0
 11
30.373330
 21
132.445748
 31
0.0
  0
LINE
  5
127
100
AcDbEntity
  8
Contenu
 62
7
100
AcDbLine
 10
30.373330
 20
132.445748
 30
0.0
 11
30.373330
 21
143.235139
 31
0.0
  0
LINE
  5
128
100
AcDbEntity
  8
Contenu
 62
7
100
AcDbLine
 10
30.373330
 20
143.235139
 30
0.0
 11
28.675587
 21
143.235139
 31
0.0
  0
LINE
  5
129
100
AcDbEntity
  8
Contenu
 62
7
100
AcDbLine
 10
28.675587
 20
143.235139
 30
0.0
 11
28.675587
 21
132.445748
 31
0.0
  0
LINE
  5
12a
100
AcDbEntity
  8
Contenu
 62
7
100
AcDbLine
 10
28.675587
 20
132.445748
 30
0.0
 11
28.675587
 21
132.445748
 31
0.0
  0
LINE
  5
12b
100
AcDbEntity
  8
Contenu
 62
7
100
AcDbLine
 10
31.993226
 20
132.445748
 30
0.0
 11
33.579901
 21
132.445748
 31
0.0
  0
LINE
  5
12c
100
AcDbEntity
  8
Contenu
 62
7
100
AcDbLine
 10
33.579901
 20
132.445748
 30
0.0
 11
33.579901
 21
135.365230
 31
0.0
  0
SPLINE
  5
12d
100
AcDbEntity
  8
Contenu
 62
7
100
AcDbSpline
 70
8
 71
3
 72
8
 73
4
 74
0
 40
0
 40
0
 40
0
 40
0
 40
1
 40
1
 40
1
 40
1
 10
33.579901
 20
135.365230
 30
0.0
 10
33.579901
 20
136.174434
 30
0.0
 10
33.928970
 20
136.586970
 30
0.0
 10
34.642974
 20
136.586970
 30
0.0
  0
SPLINE
  5
12e
100
AcDbEntity
  8
Contenu
 62
7
100
AcDbSpline
 70
8
 71
3
 72
8
 73
4
 74
0
 40
0
 40
0
 40
0
 40
0
 40
1
 40
1
 40
1
 40
1
 10
34.642974
 20
136.586970
 30
0.0
 10
35.309377
 20
136.586970
 30
0.0
 10
35.515645
 20
136.222035
 30
0.0
 10
35.515645
 20
135.603231
 30
0.0
  0
LINE
  5
12f
100
AcDbEntity
  8
Contenu
 62
7
100
AcDbLine
 10
35.515645
 20
135.603231
 30
0.0
 11
35.515645
 21
132.445748
 31
0.0
  0
LINE
  5
130
100
AcDbEntity
  8
Contenu
 62
7
100
AcDbLine
 10
35.515645
 20
132.445748
 30
0.0
 11
37.102320
 21
132.445748
 31
0.0
  0
LINE
  5
131
100
AcDbEntity
  8
Contenu
 62
7
100
AcDbLine
 10
37.102320
 20
132.445748
 30
0.0
 11
37.102320
 21
135.365230
 31
0.0
  0
SPLINE
  5
132
100
AcDbEntity
  8
Contenu
 62
7
100
AcDbSpline
 70
8
 71
3
 72
8
 73
4
 74
0
 40
0
 40
0
 40
0
 40
0
 40
1
 40
1
 40
1
 40
1
 10
37.102320
 20
135.365230
 30
0.0
 10
37.102320
 20
136.174434
 30
0.0
 10
37.451388
 20
136.586970
 30
0.0
 10
38.165392
 20
136.586970
 30
0.0
  0
SPLINE
  5
133
100
AcDbEntity
  8
Contenu
 62
7
100
AcDbSpline
 70
8
 71
3
 72
8
 73
4
 74
0
 40
0
 40
0
 40
0
 40
0
 40
1
 40
1
 40
1
 40
1
 10
38.165392
 20
136.586970
 30
0.0
 10
38.831796
 20
136.586970
 30
0.0
 10
39.038064
 20
136.222035
 30
0.0
 10
39.038064
 20
135.603231
 30
0.0
  0
LINE
  5
134
100
AcDbEntity
  8
Contenu
 62
7
100
AcDbLine
 10
39.038064
 20
135.603231
 30
0.0
 11
39.038064
 21
132.445748
 31
0.0
  0
LINE
  5
135
100
AcDbEntity
  8
Contenu
 62
7
100
AcDbLine
 10
39.038064
 20
132.445748
 30
0.0
 11
40.624739
 21
132.445748
 31
0.0
  0
LINE
  5
136
100
AcDbEntity
  8
Contenu
 62
7
100
AcDbLine
 10
40.624739
 20
132.445748
 30
0.0
 11
40.624739
 21
135.761899
 31
0.0
  0
SPLINE
  5
137
100
AcDbEntity
  8
Contenu
 62
7
100
AcDbSpline
 70
8
 71
3
 72
8
 73
4
 74
0
 40
0
 40
0
 40
0
 40
0
 40
1
 40
1
 40
1
 40
1
 10
40.624739
 20
135.761899
 30
0.0
 10
40.624739
 20
137.126439
 30
0.0
 10
39.863135
 20
138.014977
 30
0.0
 10
38.609661
 20
138.014977
 30
0.0
  0
SPLINE
  5
138
100
AcDbEntity
  8
Contenu
 62
7
100
AcDbSpline
 70
8
 71
3
 72
8
 73
4
 74
0
 40
0
 40
0
 40
0
 40
0
 40
1
 40
1
 40
1
 40
1
 10
38.609661
 20
138.014977
 30
0.0
 10
37.736990
 20
138.014977
 30
0.0
 10
37.102320
 20
137.729376
 30
0.0
 10
36.642184
 20
137.094706
 30
0.0
  0
SPLINE
  5
139
100
AcDbEntity
  8
Contenu
 62
7
100
AcDbSpline
 70
8
 71
3
 72
8
 73
4
 74
0
 40
0
 40
0
 40
0
 40
0
 40
1
 40
1
 40
1
 40
1
 10
36.642184
 20
137.094706
 30
0.0
 10
36.340716
 20
137.697642
 30
0.0
 10
35.832980
 20
138.014977
 30
0.0
 10
35.103109
 20
138.014977
 30
0.0
  0
SPLINE
  5
13a
100
AcDbEntity
  8
Contenu
 62
7
100
AcDbSpline
 70
8
 71
3
 72
8
 73
4
 74
0
 40
0
 40
0
 40
0
 40
0
 40
1
 40
1
 40
1
 40
1
 10
35.103109
 20
138.014977
 30
0.0
 10
34.436706
 20
138.014977
 30
0.0
 10
33.913103
 20
137.776976
 30
0.0
 10
33.579901
 20
137.253373
 30
0.0
  0
LINE
  5
13b
100
AcDbEntity
  8
Contenu
 62
7
100
AcDbLine
 10
33.579901
 20
137.253373
 30
0.0
 11
33.579901
 21
137.872177
 31
0.0
  0
LINE
  5
13c
100
AcDbEntity
  8
Contenu
 62
7
100
AcDbLine
 10
33.579901
 20
137.872177
 30
0.0
 11
31.993226
 21
137.872177
 31
0.0
  0
LINE
  5
13d
100
AcDbEntity
  8
Contenu
 62
7
100
AcDbLine
 10
31.993226
 20
137.872177
 30
0.0
 11
31.993226
 21
132.445748
 31
0.0
  0
LINE
  5
13e
100
AcDbEntity
  8
Contenu
 62
7
100
AcDbLine
 10
31.993226
 20
132.445748
 30
0.0
 11
31.993226
 21
132.445748
 31
0.0
  0
LINE
  5
13f
100
AcDbEntity
  8
Contenu
 62
7
100
AcDbLine
 10
41.879700
 20
129.081996
 30
0.0
 11
43.466375
 21
129.081996
 31
0.0
  0
LINE
  5
140
100
AcDbEntity
  8
Contenu
 62
7
100
AcDbLine
 10
43.466375
 20
129.081996
 30
0.0
 11
43.466375
 21
133.064551
 31
0.0
  0
SPLINE
  5
141
100
AcDbEntity
  8
Contenu
 62
7
100
AcDbSpline
 70
8
 71
3
 72
8
 73
4
 74
0
 40
0
 40
0
 40
0
 40
0
 40
1
 40
1
 40
1
 40
1
 10
43.466375
 20
133.064551
 30
0.0
 10
43.767843
 20
132.588548
 30
0.0
 10
44.323179
 20
132.302947
 30
0.0
 10
45.148250
 20
132.302947
 30
0.0
  0
SPLINE
  5
142
100
AcDbEntity
  8
Contenu
 62
7
100
AcDbSpline
 70
8
 71
3
 72
8
 73
4
 74
0
 40
0
 40
0
 40
0
 40
0
 40
1
 40
1
 40
1
 40
1
 10
45.148250
 20
132.302947
 30
0.0
 10
46.560391
 20
132.302947
 30
0.0
 10
47.702797
 20
133.508820
 30
0.0
 10
47.702797
 20
135.158962
 30
0.0
  0
SPLINE
  5
143
100
AcDbEntity
  8
Contenu
 62
7
100
AcDbSpline
 70
8
 71
3
 72
8
 73
4
 74
0
 40
0
 40
0
 40
0
 40
0
 40
1
 40
1
 40
1
 40
1
 10
47.702797
 20
135.158962
 30
0.0
 10
47.702797
 20
136.809104
 30
0.0
 10
46.560391
 20
138.014977
 30
0.0
 10
45.148250
 20
138.014977
 30
0.0
  0
SPLINE
  5
144
100
AcDbEntity
  8
Contenu
 62
7
100
AcDbSpline
 70
8
 71
3
 72
8
 73
4
 74
0
 40
0
 40
0
 40
0
 40
0
 40
1
 40
1
 40
1
 40
1
 10
45.148250
 20
138.014977
 30
0.0
 10
44.323179
 20
138.014977
 30
0.0
 10
43.767843
 20
137.729376
 30
0.0
 10
43.466375
 20
137.253373
 30
0.0
  0
LINE
  5
145
100
AcDbEntity
  8
Contenu
 62
7
100
AcDbLine
 10
43.466375
 20
137.253373
 30
0.0
 11
43.466375
 21
137.872177
 31
0.0
  0
LINE
  5
146
100
AcDbEntity
  8
Contenu
 62
7
100
AcDbLine
 10
43.466375
 20
137.872177
 30
0.0
 11
41.879700
 21
137.872177
 31
0.0
  0
LINE
  5
147
100
AcDbEntity
  8
Contenu
 62
7
100
AcDbLine
 10
41.879700
 20
137.872177
 30
0.0
 11
41.879700
 21
129.081996
 31
0.0
  0
LINE
  5
148
100
AcDbEntity
  8
Contenu
 62
7
100
AcDbLine
 10
41.879700
 20
129.081996
 30
0.0
 11
41.879700
 21
129.081996
 31
0.0
  0
SPLINE
  5
149
100
AcDbEntity
  8
Contenu
 62
7
100
AcDbSpline
 70
8
 71
3
 72
8
 73
4
 74
0
 40
0
 40
0
 40
0
 40
0
 40
1
 40
1
 40
1
 40
1
 10
44.735715
 20
133.699221
 30
0.0
 10
43.926510
 20
133.699221
 30
0.0
 10
43.434641
 20
134.270424
 30
0.0
 10
43.434641
 20
135.158962
 30
0.0
  0
SPLINE
  5
14a
100
AcDbEntity
  8
Contenu
 62
7
100
AcDbSpline
 70
8
 71
3
 72
8
 73
4
 74
0
 40
0
 40
0
 40
0
 40
0
 40
1
 40
1
 40
1
 40
1
 10
43.434641
 20
135.158962
 30
0.0
 10
43.434641
 20
136.047500
 30
0.0
 10
43.926510
 20
136.618703
 30
0.0
 10
44.735715
 20
136.618703
 30
0.0
  0
SPLINE
  5
14b
100
AcDbEntity
  8
Contenu
 62
7
100
AcDbSpline
 70
8
 71
3
 72
8
 73
4
 74
0
 40
0
 40
0
 40
0
 40
0
 40
1
 40
1
 40
1
 40
1
 10
44.735715
 20
136.618703
 30
0.0
 10
45.544919
 20
136.618703
 30
0.0
 10
46.068522
 20
136.047500
 30
0.0
 10
46.068522
 20
135.158962
 30
0.0
  0
SPLINE
  5
14c
100
AcDbEntity
  8
Contenu
 62
7
100
AcDbSpline
 70
8
 71
3
 72
8
 73
4
 74
0
 40
0
 40
0
 40
0
 40
0
 40
1
 40
1
 40
1
 40
1
 10
46.068522
 20
135.158962
 30
0.0
 10
46.068522
 20
134.270424
 30
0.0
 10
45.544919
 20
133.699221
 30
0.0
 10
44.735715
 20
133.699221
 30
0.0
  0
LINE
  5
14d
100
AcDbEntity
  8
Contenu
 62
7
100
AcDbLine
 10
44.735715
 20
133.699221
 30
0.0
 11
44.735715
 21
133.699221
 31
0.0
  0
LINE
  5
14e
100
AcDbEntity
  8
Contenu
 62
7
100
AcDbLine
 10
48.758678
 20
132.445748
 30
0.0
 11
50.345353
 21
132.445748
 31
0.0
  0
LINE
  5
14f
100
AcDbEntity
  8
Contenu
 62
7
100
AcDbLine
 10
50.345353
 20
132.445748
 30
0.0
 11
50.345353
 21
135.000295
 31
0.0
  0
SPLINE
  5
150
100
AcDbEntity
  8
Contenu
 62
7
100
AcDbSpline
 70
8
 71
3
 72
8
 73
4
 74
0
 40
0
 40
0
 40
0
 40
0
 40
1
 40
1
 40
1
 40
1
 10
50.345353
 20
135.000295
 30
0.0
 10
50.345353
 20
136.126834
 30
0.0
 10
50.805489
 20
136.586970
 30
0.0
 10
51.567093
 20
136.586970
 30
0.0
  0
SPLINE
  5
151
100
AcDbEntity
  8
Contenu
 62
7
100
AcDbSpline
 70
8
 71
3
 72
8
 73
4
 74
0
 40
0
 40
0
 40
0
 40
0
 40
1
 40
1
 40
1
 40
1
 10
51.567093
 20
136.586970
 30
0.0
 10
51.836828
 20
136.586970
 30
0.0
 10
52.043096
 20
136.523503
 30
0.0
 10
52.249363
 20
136.412436
 30
0.0
  0
LINE
  5
152
100
AcDbEntity
  8
Contenu
 62
7
100
AcDbLine
 10
52.249363
 20
136.412436
 30
0.0
 11
52.757099
 21
137.776976
 31
0.0
  0
SPLINE
  5
153
100
AcDbEntity
  8
Contenu
 62
7
100
AcDbSpline
 70
8
 71
3
 72
8
 73
4
 74
0
 40
0
 40
0
 40
0
 40
0
 40
1
 40
1
 40
1
 40
1
 10
52.757099
 20
137.776976
 30
0.0
 10
52.550832
 20
137.903910
 30
0.0
 10
52.281097
 20
138.014977
 30
0.0
 10
51.900295
 20
138.014977
 30
0.0
  0
SPLINE
  5
154
100
AcDbEntity
  8
Contenu
 62
7
100
AcDbSpline
 70
8
 71
3
 72
8
 73
4
 74
0
 40
0
 40
0
 40
0
 40
0
 40
1
 40
1
 40
1
 40
1
 10
51.900295
 20
138.014977
 30
0.0
 10
51.329092
 20
138.014977
 30
0.0
 10
50.710288
 20
137.776976
 30
0.0
 10
50.345353
 20
137.031239
 30
0.0
  0
LINE
  5
155
100
AcDbEntity
  8
Contenu
 62
7
100
AcDbLine
 10
50.345353
 20
137.031239
 30
0.0
 11
50.345353
 21
137.872177
 31
0.0
  0
LINE
  5
156
100
AcDbEntity
  8
Contenu
 62
7
100
AcDbLine
 10
50.345353
 20
137.872177
 30
0.0
 11
48.758678
 21
137.872177
 31
0.0
  0
LINE
  5
157
100
AcDbEntity
  8
Contenu
 62
7
100
AcDbLine
 10
48.758678
 20
137.872177
 30
0.0
 11
48.758678
 21
132.445748
 31
0.0
  0
LINE
  5
158
100
AcDbEntity
  8
Contenu
 62
7
100
AcDbLine
 10
48.758678
 20
132.445748
 30
0.0
 11
48.758678
 21
132.445748
 31
0.0
  0
LINE
  5
159
100
AcDbEntity
  8
Contenu
 62
7
100
AcDbLine
 10
54.742181
 20
134.619493
 30
0.0
 11
58.883403
 21
134.619493
 31
0.0
  0
SPLINE
  5
15a
100
AcDbEntity
  8
Contenu
 62
7
100
AcDbSpline
 70
8
 71
3
 72
8
 73
4
 74
0
 40
0
 40
0
 40
0
 40
0
 40
1
 40
1
 40
1
 40
1
 10
58.883403
 20
134.619493
 30
0.0
 10
59.010337
 20
136.507636
 30
0.0
 10
57.931398
 20
138.014977
 30
0.0
 10
56.027387
 20
138.014977
 30
0.0
  0
SPLINE
  5
15b
100
AcDbEntity
  8
Contenu
 62
7
100
AcDbSpline
 70
8
 71
3
 72
8
 73
4
 74
0
 40
0
 40
0
 40
0
 40
0
 40
1
 40
1
 40
1
 40
1
 10
56.027387
 20
138.014977
 30
0.0
 10
54.377245
 20
138.014977
 30
0.0
 10
53.092038
 20
136.809104
 30
0.0
 10
53.092038
 20
135.158962
 30
0.0
  0
SPLINE
  5
15c
100
AcDbEntity
  8
Contenu
 62
7
100
AcDbSpline
 70
8
 71
3
 72
8
 73
4
 74
0
 40
0
 40
0
 40
0
 40
0
 40
1
 40
1
 40
1
 40
1
 10
53.092038
 20
135.158962
 30
0.0
 10
53.092038
 20
133.508820
 30
0.0
 10
54.297912
 20
132.302947
 30
0.0
 10
56.186055
 20
132.302947
 30
0.0
  0
SPLINE
  5
15d
100
AcDbEntity
  8
Contenu
 62
7
100
AcDbSpline
 70
8
 71
3
 72
8
 73
4
 74
0
 40
0
 40
0
 40
0
 40
0
 40
1
 40
1
 40
1
 40
1
 10
56.186055
 20
132.302947
 30
0.0
 10
57.312594
 20
132.302947
 30
0.0
 10
58.026598
 20
132.683749
 30
0.0
 10
58.518467
 20
133.207352
 30
0.0
  0
LINE
  5
15e
100
AcDbEntity
  8
Contenu
 62
7
100
AcDbLine
 10
58.518467
 20
133.207352
 30
0.0
 11
57.566462
 21
134.159357
 31
0.0
  0
SPLINE
  5
15f
100
AcDbEntity
  8
Contenu
 62
7
100
AcDbSpline
 70
8
 71
3
 72
8
 73
4
 74
0
 40
0
 40
0
 40
0
 40
0
 40
1
 40
1
 40
1
 40
1
 10
57.566462
 20
134.159357
 30
0.0
 10
57.264994
 20
133.905489
 30
0.0
 10
56.852459
 20
133.635754
 30
0.0
 10
56.154321
 20
133.635754
 30
0.0
  0
SPLINE
  5
160
100
AcDbEntity
  8
Contenu
 62
7
100
AcDbSpline
 70
8
 71
3
 72
8
 73
4
 74
0
 40
0
 40
0
 40
0
 40
0
 40
1
 40
1
 40
1
 40
1
 10
56.154321
 20
133.635754
 30
0.0
 10
55.360984
 20
133.635754
 30
0.0
 10
54.900848
 20
134.016556
 30
0.0
 10
54.742181
 20
134.619493
 30
0.0
  0
LINE
  5
161
100
AcDbEntity
  8
Contenu
 62
7
100
AcDbLine
 10
54.742181
 20
134.619493
 30
0.0
 11
54.742181
 21
134.619493
 31
0.0
  0
SPLINE
  5
162
100
AcDbEntity
  8
Contenu
 62
7
100
AcDbSpline
 70
8
 71
3
 72
8
 73
4
 74
0
 40
0
 40
0
 40
0
 40
0
 40
1
 40
1
 40
1
 40
1
 10
54.758047
 20
135.730165
 30
0.0
 10
54.916715
 20
136.348969
 30
0.0
 10
55.376851
 20
136.682170
 30
0.0
 10
56.027387
 20
136.682170
 30
0.0
  0
SPLINE
  5
163
100
AcDbEntity
  8
Contenu
 62
7
100
AcDbSpline
 70
8
 71
3
 72
8
 73
4
 74
0
 40
0
 40
0
 40
0
 40
0
 40
1
 40
1
 40
1
 40
1
 10
56.027387
 20
136.682170
 30
0.0
 10
56.709658
 20
136.682170
 30
0.0
 10
57.106327
 20
136.285502
 30
0.0
 10
57.217394
 20
135.730165
 30
0.0
  0
LINE
  5
164
100
AcDbEntity
  8
Contenu
 62
7
100
AcDbLine
 10
57.217394
 20
135.730165
 30
0.0
 11
54.758047
 21
135.730165
 31
0.0
  0
LINE
  5
165
100
AcDbEntity
  8
Contenu
 62
7
100
AcDbLine
 10
54.758047
 20
135.730165
 30
0.0
 11
54.758047
 21
135.730165
 31
0.0
  0
SPLINE
  5
166
100
AcDbEntity
  8
Contenu
 62
7
100
AcDbSpline
 70
8
 71
3
 72
8
 73
4
 74
0
 40
0
 40
0
 40
0
 40
0
 40
1
 40
1
 40
1
 40
1
 10
61.882465
 20
132.302947
 30
0.0
 10
63.373939
 20
132.302947
 30
0.0
 10
64.151410
 20
133.001084
 30
0.0
 10
64.151410
 20
134.095890
 30
0.0
  0
SPLINE
  5
167
100
AcDbEntity
  8
Contenu
 62
7
100
AcDbSpline
 70
8
 71
3
 72
8
 73
4
 74
0
 40
0
 40
0
 40
0
 40
0
 40
1
 40
1
 40
1
 40
1
 10
64.151410
 20
134.095890
 30
0.0
 10
64.151410
 20
134.984428
 30
0.0
 10
63.564340
 20
135.603231
 30
0.0
 10
62.342600
 20
135.841232
 30
0.0
  0
SPLINE
  5
168
100
AcDbEntity
  8
Contenu
 62
7
100
AcDbSpline
 70
8
 71
3
 72
8
 73
4
 74
0
 40
0
 40
0
 40
0
 40
0
 40
1
 40
1
 40
1
 40
1
 10
62.342600
 20
135.841232
 30
0.0
 10
61.438196
 20
136.015767
 30
0.0
 10
61.231928
 20
136.110967
 30
0.0
 10
61.231928
 20
136.380702
 30
0.0
  0
SPLINE
  5
169
100
AcDbEntity
  8
Contenu
 62
7
100
AcDbSpline
 70
8
 71
3
 72
8
 73
4
 74
0
 40
0
 40
0
 40
0
 40
0
 40
1
 40
1
 40
1
 40
1
 10
61.231928
 20
136.380702
 30
0.0
 10
61.231928
 20
136.586970
 30
0.0
 10
61.406462
 20
136.761504
 30
0.0
 10
61.914198
 20
136.761504
 30
0.0
  0
SPLINE
  5
16a
100
AcDbEntity
  8
Contenu
 62
7
100
AcDbSpline
 70
8
 71
3
 72
8
 73
4
 74
0
 40
0
 40
0
 40
0
 40
0
 40
1
 40
1
 40
1
 40
1
 10
61.914198
 20
136.761504
 30
0.0
 10
62.390201
 20
136.761504
 30
0.0
 10
62.739269
 20
136.555236
 30
0.0
 10
63.009004
 20
136.285502
 30
0.0
  0
LINE
  5
16b
100
AcDbEntity
  8
Contenu
 62
7
100
AcDbLine
 10
63.009004
 20
136.285502
 30
0.0
 11
63.865808
 21
137.237507
 31
0.0
  0
SPLINE
  5
16c
100
AcDbEntity
  8
Contenu
 62
7
100
AcDbSpline
 70
8
 71
3
 72
8
 73
4
 74
0
 40
0
 40
0
 40
0
 40
0
 40
1
 40
1
 40
1
 40
1
 10
63.865808
 20
137.237507
 30
0.0
 10
63.358072
 20
137.697642
 30
0.0
 10
62.771003
 20
138.014977
 30
0.0
 10
61.866598
 20
138.014977
 30
0.0
  0
SPLINE
  5
16d
100
AcDbEntity
  8
Contenu
 62
7
100
AcDbSpline
 70
8
 71
3
 72
8
 73
4
 74
0
 40
0
 40
0
 40
0
 40
0
 40
1
 40
1
 40
1
 40
1
 10
61.866598
 20
138.014977
 30
0.0
 10
60.581391
 20
138.014977
 30
0.0
 10
59.803920
 20
137.316840
 30
0.0
 10
59.803920
 20
136.301368
 30
0.0
  0
SPLINE
  5
16e
100
AcDbEntity
  8
Contenu
 62
7
100
AcDbSpline
 70
8
 71
3
 72
8
 73
4
 74
0
 40
0
 40
0
 40
0
 40
0
 40
1
 40
1
 40
1
 40
1
 10
59.803920
 20
136.301368
 30
0.0
 10
59.803920
 20
135.301763
 30
0.0
 10
60.470324
 20
134.762293
 30
0.0
 10
61.596863
 20
134.524292
 30
0.0
  0
SPLINE
  5
16f
100
AcDbEntity
  8
Contenu
 62
7
100
AcDbSpline
 70
8
 71
3
 72
8
 73
4
 74
0
 40
0
 40
0
 40
0
 40
0
 40
1
 40
1
 40
1
 40
1
 10
61.596863
 20
134.524292
 30
0.0
 10
62.485401
 20
134.333891
 30
0.0
 10
62.644069
 20
134.222824
 30
0.0
 10
62.644069
 20
133.968956
 30
0.0
  0
SPLINE
  5
170
100
AcDbEntity
  8
Contenu
 62
7
100
AcDbSpline
 70
8
 71
3
 72
8
 73
4
 74
0
 40
0
 40
0
 40
0
 40
0
 40
1
 40
1
 40
1
 40
1
 10
62.644069
 20
133.968956
 30
0.0
 10
62.644069
 20
133.746821
 30
0.0
 10
62.421934
 20
133.572287
 30
0.0
 10
61.850731
 20
133.572287
 30
0.0
  0
SPLINE
  5
171
100
AcDbEntity
  8
Contenu
 62
7
100
AcDbSpline
 70
8
 71
3
 72
8
 73
4
 74
0
 40
0
 40
0
 40
0
 40
0
 40
1
 40
1
 40
1
 40
1
 10
61.850731
 20
133.572287
 30
0.0
 10
61.311262
 20
133.572287
 30
0.0
 10
60.819392
 20
133.794422
 30
0.0
 10
60.438590
 20
134.254557
 30
0.0
  0
LINE
  5
172
100
AcDbEntity
  8
Contenu
 62
7
100
AcDbLine
 10
60.438590
 20
134.254557
 30
0.0
 11
59.423118
 21
133.366019
 31
0.0
  0
SPLINE
  5
173
100
AcDbEntity
  8
Contenu
 62
7
100
AcDbSpline
 70
8
 71
3
 72
8
 73
4
 74
0
 40
0
 40
0
 40
0
 40
0
 40
1
 40
1
 40
1
 40
1
 10
59.423118
 20
133.366019
 30
0.0
 10
60.057788
 20
132.636149
 30
0.0
 10
60.930460
 20
132.302947
 30
0.0
 10
61.882465
 20
132.302947
 30
0.0
  0
LINE
  5
174
100
AcDbEntity
  8
Contenu
 62
7
100
AcDbLine
 10
61.882465
 20
132.302947
 30
0.0
 11
61.882465
 21
132.302947
 31
0.0
  0
SPLINE
  5
175
100
AcDbEntity
  8
Contenu
 62
7
100
AcDbSpline
 70
8
 71
3
 72
8
 73
4
 74
0
 40
0
 40
0
 40
0
 40
0
 40
1
 40
1
 40
1
 40
1
 10
67.057755
 20
132.302947
 30
0.0
 10
68.549229
 20
132.302947
 30
0.0
 10
69.326700
 20
133.001084
 30
0.0
 10
69.326700
 20
134.095890
 30
0.0
  0
SPLINE
  5
176
100
AcDbEntity
  8
Contenu
 62
7
100
AcDbSpline
 70
8
 71
3
 72
8
 73
4
 74
0
 40
0
 40
0
 40
0
 40
0
 40
1
 40
1
 40
1
 40
1
 10
69.326700
 20
134.095890
 30
0.0
 10
69.326700
 20
134.984428
 30
0.0
 10
68.739630
 20
135.603231
 30
0.0
 10
67.517890
 20
135.841232
 30
0.0
  0
SPLINE
  5
177
100
AcDbEntity
  8
Contenu
 62
7
100
AcDbSpline
 70
8
 71
3
 72
8
 73
4
 74
0
 40
0
 40
0
 40
0
 40
0
 40
1
 40
1
 40
1
 40
1
 10
67.517890
 20
135.841232
 30
0.0
 10
66.613486
 20
136.015767
 30
0.0
 10
66.407218
 20
136.110967
 30
0.0
 10
66.407218
 20
136.380702
 30
0.0
  0
SPLINE
  5
178
100
AcDbEntity
  8
Contenu
 62
7
100
AcDbSpline
 70
8
 71
3
 72
8
 73
4
 74
0
 40
0
 40
0
 40
0
 40
0
 40
1
 40
1
 40
1
 40
1
 10
66.407218
 20
136.380702
 30
0.0
 10
66.407218
 20
136.586970
 30
0.0
 10
66.581752
 20
136.761504
 30
0.0
 10
67.089488
 20
136.761504
 30
0.0
  0
SPLINE
  5
179
100
AcDbEntity
  8
Contenu
 62
7
100
AcDbSpline
 70
8
 71
3
 72
8
 73
4
 74
0
 40
0
 40
0
 40
0
 40
0
 40
1
 40
1
 40
1
 40
1
 10
67.089488
 20
136.761504
 30
0.0
 10
67.565491
 20
136.761504
 30
0.0
 10
67.914559
 20
136.555236
 30
0.0
 10
68.184294
 20
136.285502
 30
0.0
  0
LINE
  5
17a
100
AcDbEntity
  8
Contenu
 62
7
100
AcDbLine
 10
68.184294
 20
136.285502
 30
0.0
 11
69.041098
 21
137.237507
 31
0.0
  0
SPLINE
  5
17b
100
AcDbEntity
  8
Contenu
 62
7
100
AcDbSpline
 70
8
 71
3
 72
8
 73
4
 74
0
 40
0
 40
0
 40
0
 40
0
 40
1
 40
1
 40
1
 40
1
 10
69.041098
 20
137.237507
 30
0.0
 10
68.533362
 20
137.697642
 30
0.0
 10
67.946293
 20
138.014977
 30
0.0
 10
67.041888
 20
138.014977
 30
0.0
  0
SPLINE
  5
17c
100
AcDbEntity
  8
Contenu
 62
7
100
AcDbSpline
 70
8
 71
3
 72
8
 73
4
 74
0
 40
0
 40
0
 40
0
 40
0
 40
1
 40
1
 40
1
 40
1
 10
67.041888
 20
138.014977
 30
0.0
 10
65.756681
 20
138.014977
 30
0.0
 10
64.979210
 20
137.316840
 30
0.0
 10
64.979210
 20
136.301368
 30
0.0
  0
SPLINE
  5
17d
100
AcDbEntity
  8
Contenu
 62
7
100
AcDbSpline
 70
8
 71
3
 72
8
 73
4
 74
0
 40
0
 40
0
 40
0
 40
0
 40
1
 40
1
 40
1
 40
1
 10
64.979210
 20
136.301368
 30
0.0
 10
64.979210
 20
135.301763
 30
0.0
 10
65.645614
 20
134.762293
 30
0.0
 10
66.772153
 20
134.524292
 30
0.0
  0
SPLINE
  5
17e
100
AcDbEntity
  8
Contenu
 62
7
100
AcDbSpline
 70
8
 71
3
 72
8
 73
4
 74
0
 40
0
 40
0
 40
0
 40
0
 40
1
 40
1
 40
1
 40
1
 10
66.772153
 20
134.524292
 30
0.0
 10
67.660691
 20
134.333891
 30
0.0
 10
67.819359
 20
134.222824
 30
0.0
 10
67.819359
 20
133.968956
 30
0.0
  0
SPLINE
  5
17f
100
AcDbEntity
  8
Contenu
 62
7
100
AcDbSpline
 70
8
 71
3
 72
8
 73
4
 74
0
 40
0
 40
0
 40
0
 40
0
 40
1
 40
1
 40
1
 40
1
 10
67.819359
 20
133.968956
 30
0.0
 10
67.819359
 20
133.746821
 30
0.0
 10
67.597224
 20
133.572287
 30
0.0
 10
67.026021
 20
133.572287
 30
0.0
  0
SPLINE
  5
180
100
AcDbEntity
  8
Contenu
 62
7
100
AcDbSpline
 70
8
 71
3
 72
8
 73
4
 74
0
 40
0
 40
0
 40
0
 40
0
 40
1
 40
1
 40
1
 40
1
 10
67.026021
 20
133.572287
 30
0.0
 10
66.486552
 20
133.572287
 30
0.0
 10
65.994682
 20
133.794422
 30
0.0
 10
65.613880
 20
134.254557
 30
0.0
  0
LINE
  5
181
100
AcDbEntity
  8
Contenu
 62
7
100
AcDbLine
 10
65.613880
 20
134.254557
 30
0.0
 11
64.598408
 21
133.366019
 31
0.0
  0
SPLINE
  5
182
100
AcDbEntity
  8
Contenu
 62
7
100
AcDbSpline
 70
8
 71
3
 72
8
 73
4
 74
0
 40
0
 40
0
 40
0
 40
0
 40
1
 40
1
 40
1
 40
1
 10
64.598408
 20
133.366019
 30
0.0
 10
65.233078
 20
132.636149
 30
0.0
 10
66.105749
 20
132.302947
 30
0.0
 10
67.057755
 20
132.302947
 30
0.0
  0
LINE
  5
183
100
AcDbEntity
  8
Contenu
 62
7
100
AcDbLine
 10
67.057755
 20
132.302947
 30
0.0
 11
67.057755
 21
132.302947
 31
0.0
  0
SPLINE
  5
184
100
AcDbEntity
  8
Contenu
 62
7
100
AcDbSpline
 70
8
 71
3
 72
8
 73
4
 74
0
 40
0
 40
0
 40
0
 40
0
 40
1
 40
1
 40
1
 40
1
 10
71.090634
 20
138.887649
 30
0.0
 10
71.630104
 20
138.887649
 30
0.0
 10
72.090240
 20
139.316051
 30
0.0
 10
72.090240
 20
139.887254
 30
0.0
  0
SPLINE
  5
185
100
AcDbEntity
  8
Contenu
 62
7
100
AcDbSpline
 70
8
 71
3
 72
8
 73
4
 74
0
 40
0
 40
0
 40
0
 40
0
 40
1
 40
1
 40
1
 40
1
 10
72.090240
 20
139.887254
 30
0.0
 10
72.090240
 20
140.458457
 30
0.0
 10
71.630104
 20
140.886859
 30
0.0
 10
71.090634
 20
140.886859
 30
0.0
  0
SPLINE
  5
186
100
AcDbEntity
  8
Contenu
 62
7
100
AcDbSpline
 70
8
 71
3
 72
8
 73
4
 74
0
 40
0
 40
0
 40
0
 40
0
 40
1
 40
1
 40
1
 40
1
 10
71.090634
 20
140.886859
 30
0.0
 10
70.567032
 20
140.886859
 30
0.0
 10
70.091029
 20
140.458457
 30
0.0
 10
70.091029
 20
139.887254
 30
0.0
  0
SPLINE
  5
187
100
AcDbEntity
  8
Contenu
 62
7
100
AcDbSpline
 70
8
 71
3
 72
8
 73
4
 74
0
 40
0
 40
0
 40
0
 40
0
 40
1
 40
1
 40
1
 40
1
 10
70.091029
 20
139.887254
 30
0.0
 10
70.091029
 20
139.316051
 30
0.0
 10
70.567032
 20
138.887649
 30
0.0
 10
71.090634
 20
138.887649
 30
0.0
  0
LINE
  5
188
100
AcDbEntity
  8
Contenu
 62
7
100
AcDbLine
 10
71.090634
 20
138.887649
 30
0.0
 11
71.090634
 21
138.887649
 31
0.0
  0
LINE
  5
189
100
AcDbEntity
  8
Contenu
 62
7
100
AcDbLine
 10
70.297297
 20
132.445748
 30
0.0
 11
71.883972
 21
132.445748
 31
0.0
  0
LINE
  5
18a
100
AcDbEntity
  8
Contenu
 62
7
100
AcDbLine
 10
71.883972
 20
132.445748
 30
0.0
 11
71.883972
 21
137.872177
 31
0.0
  0
LINE
  5
18b
100
AcDbEntity
  8
Contenu
 62
7
100
AcDbLine
 10
71.883972
 20
137.872177
 30
0.0
 11
70.297297
 21
137.872177
 31
0.0
  0
LINE
  5
18c
100
AcDbEntity
  8
Contenu
 62
7
100
AcDbLine
 10
70.297297
 20
137.872177
 30
0.0
 11
70.297297
 21
132.445748
 31
0.0
  0
LINE
  5
18d
100
AcDbEntity
  8
Contenu
 62
7
100
AcDbLine
 10
70.297297
 20
132.445748
 30
0.0
 11
70.297297
 21
132.445748
 31
0.0
  0
SPLINE
  5
18e
100
AcDbEntity
  8
Contenu
 62
7
100
AcDbSpline
 70
8
 71
3
 72
8
 73
4
 74
0
 40
0
 40
0
 40
0
 40
0
 40
1
 40
1
 40
1
 40
1
 10
75.923548
 20
132.302947
 30
0.0
 10
77.589557
 20
132.302947
 30
0.0
 10
78.890630
 20
133.508820
 30
0.0
 10
78.890630
 20
135.158962
 30
0.0
  0
SPLINE
  5
18f
100
AcDbEntity
  8
Contenu
 62
7
100
AcDbSpline
 70
8
 71
3
 72
8
 73
4
 74
0
 40
0
 40
0
 40
0
 40
0
 40
1
 40
1
 40
1
 40
1
 10
78.890630
 20
135.158962
 30
0.0
 10
78.890630
 20
136.809104
 30
0.0
 10
77.589557
 20
138.014977
 30
0.0
 10
75.923548
 20
138.014977
 30
0.0
  0
SPLINE
  5
190
100
AcDbEntity
  8
Contenu
 62
7
100
AcDbSpline
 70
8
 71
3
 72
8
 73
4
 74
0
 40
0
 40
0
 40
0
 40
0
 40
1
 40
1
 40
1
 40
1
 10
75.923548
 20
138.014977
 30
0.0
 10
74.257539
 20
138.014977
 30
0.0
 10
72.956465
 20
136.809104
 30
0.0
 10
72.956465
 20
135.158962
 30
0.0
  0
SPLINE
  5
191
100
AcDbEntity
  8
Contenu
 62
7
100
AcDbSpline
 70
8
 71
3
 72
8
 73
4
 74
0
 40
0
 40
0
 40
0
 40
0
 40
1
 40
1
 40
1
 40
1
 10
72.956465
 20
135.158962
 30
0.0
 10
72.956465
 20
133.508820
 30
0.0
 10
74.257539
 20
132.302947
 30
0.0
 10
75.923548
 20
132.302947
 30
0.0
  0
LINE
  5
192
100
AcDbEntity
  8
Contenu
 62
7
100
AcDbLine
 10
75.923548
 20
132.302947
 30
0.0
 11
75.923548
 21
132.302947
 31
0.0
  0
SPLINE
  5
193
100
AcDbEntity
  8
Contenu
 62
7
100
AcDbSpline
 70
8
 71
3
 72
8
 73
4
 74
0
 40
0
 40
0
 40
0
 40
0
 40
1
 40
1
 40
1
 40
1
 10
75.923548
 20
133.651621
 30
0.0
 10
75.098477
 20
133.651621
 30
0.0
 10
74.590741
 20
134.286291
 30
0.0
 10
74.590741
 20
135.158962
 30
0.0
  0
SPLINE
  5
194
100
AcDbEntity
  8
Contenu
 62
7
100
AcDbSpline
 70
8
 71
3
 72
8
 73
4
 74
0
 40
0
 40
0
 40
0
 40
0
 40
1
 40
1
 40
1
 40
1
 10
74.590741
 20
135.158962
 30
0.0
 10
74.590741
 20
136.031634
 30
0.0
 10
75.098477
 20
136.666304
 30
0.0
 10
75.923548
 20
136.666304
 30
0.0
  0
SPLINE
  5
195
100
AcDbEntity
  8
Contenu
 62
7
100
AcDbSpline
 70
8
 71
3
 72
8
 73
4
 74
0
 40
0
 40
0
 40
0
 40
0
 40
1
 40
1
 40
1
 40
1
 10
75.923548
 20
136.666304
 30
0.0
 10
76.748619
 20
136.666304
 30
0.0
 10
77.256355
 20
136.031634
 30
0.0
 10
77.256355
 20
135.158962
 30
0.0
  0
SPLINE
  5
196
100
AcDbEntity
  8
Contenu
 62
7
100
AcDbSpline
 70
8
 71
3
 72
8
 73
4
 74
0
 40
0
 40
0
 40
0
 40
0
 40
1
 40
1
 40
1
 40
1
 10
77.256355
 20
135.158962
 30
0.0
 10
77.256355
 20
134.286291
 30
0.0
 10
76.748619
 20
133.651621
 30
0.0
 10
75.923548
 20
133.651621
 30
0.0
  0
LINE
  5
197
100
AcDbEntity
  8
Contenu
 62
7
100
AcDbLine
 10
75.923548
 20
133.651621
 30
0.0
 11
75.923548
 21
133.651621
 31
0.0
  0
LINE
  5
198
100
AcDbEntity
  8
Contenu
 62
7
100
AcDbLine
 10
79.934365
 20
132.445748
 30
0.0
 11
81.521040
 21
132.445748
 31
0.0
  0
LINE
  5
199
100
AcDbEntity
  8
Contenu
 62
7
100
AcDbLine
 10
81.521040
 20
132.445748
 30
0.0
 11
81.521040
 21
135.365230
 31
0.0
  0
SPLINE
  5
19a
100
AcDbEntity
  8
Contenu
 62
7
100
AcDbSpline
 70
8
 71
3
 72
8
 73
4
 74
0
 40
0
 40
0
 40
0
 40
0
 40
1
 40
1
 40
1
 40
1
 10
81.521040
 20
135.365230
 30
0.0
 10
81.521040
 20
136.174434
 30
0.0
 10
81.949442
 20
136.586970
 30
0.0
 10
82.711046
 20
136.586970
 30
0.0
  0
SPLINE
  5
19b
100
AcDbEntity
  8
Contenu
 62
7
100
AcDbSpline
 70
8
 71
3
 72
8
 73
4
 74
0
 40
0
 40
0
 40
0
 40
0
 40
1
 40
1
 40
1
 40
1
 10
82.711046
 20
136.586970
 30
0.0
 10
83.361583
 20
136.586970
 30
0.0
 10
83.678918
 20
136.222035
 30
0.0
 10
83.678918
 20
135.619098
 30
0.0
  0
LINE
  5
19c
100
AcDbEntity
  8
Contenu
 62
7
100
AcDbLine
 10
83.678918
 20
135.619098
 30
0.0
 11
83.678918
 21
132.445748
 31
0.0
  0
LINE
  5
19d
100
AcDbEntity
  8
Contenu
 62
7
100
AcDbLine
 10
83.678918
 20
132.445748
 30
0.0
 11
85.265593
 21
132.445748
 31
0.0
  0
LINE
  5
19e
100
AcDbEntity
  8
Contenu
 62
7
100
AcDbLine
 10
85.265593
 20
132.445748
 30
0.0
 11
85.265593
 21
135.730165
 31
0.0
  0
SPLINE
  5
19f
100
AcDbEntity
  8
Contenu
 62
7
100
AcDbSpline
 70
8
 71
3
 72
8
 73
4
 74
0
 40
0
 40
0
 40
0
 40
0
 40
1
 40
1
 40
1
 40
1
 10
85.265593
 20
135.730165
 30
0.0
 10
85.265593
 20
137.174040
 30
0.0
 10
84.424656
 20
138.014977
 30
0.0
 10
83.218782
 20
138.014977
 30
0.0
  0
SPLINE
  5
1a0
100
AcDbEntity
  8
Contenu
 62
7
100
AcDbSpline
 70
8
 71
3
 72
8
 73
4
 74
0
 40
0
 40
0
 40
0
 40
0
 40
1
 40
1
 40
1
 40
1
 10
83.218782
 20
138.014977
 30
0.0
 10
82.457178
 20
138.014977
 30
0.0
 10
81.870109
 20
137.761109
 30
0.0
 10
81.521040
 20
137.174040
 30
0.0
  0
LINE
  5
1a1
100
AcDbEntity
  8
Contenu
 62
7
100
AcDbLine
 10
81.521040
 20
137.174040
 30
0.0
 11
81.521040
 21
137.872177
 31
0.0
  0
LINE
  5
1a2
100
AcDbEntity
  8
Contenu
 62
7
100
AcDbLine
 10
81.521040
 20
137.872177
 30
0.0
 11
79.934365
 21
137.872177
 31
0.0
  0
LINE
  5
1a3
100
AcDbEntity
  8
Contenu
 62
7
100
AcDbLine
 10
79.934365
 20
137.872177
 30
0.0
 11
79.934365
 21
132.445748
 31
0.0
  0
LINE
  5
1a4
100
AcDbEntity
  8
Contenu
 62
7
100
AcDbLine
 10
79.934365
 20
132.445748
 30
0.0
 11
79.934365
 21
132.445748
 31
0.0
  0
SPLINE
  5
1a5
100
AcDbEntity
  8
Contenu
 62
7
100
AcDbSpline
 70
8
 71
3
 72
8
 73
4
 74
0
 40
0
 40
0
 40
0
 40
0
 40
1
 40
1
 40
1
 40
1
 10
92.307210
 20
132.302947
 30
0.0
 10
94.544422
 20
132.302947
 30
0.0
 10
95.639228
 20
133.619887
 30
0.0
 10
95.639228
 20
135.238296
 30
0.0
  0
SPLINE
  5
1a6
100
AcDbEntity
  8
Contenu
 62
7
100
AcDbSpline
 70
8
 71
3
 72
8
 73
4
 74
0
 40
0
 40
0
 40
0
 40
0
 40
1
 40
1
 40
1
 40
1
 10
95.639228
 20
135.238296
 30
0.0
 10
95.639228
 20
136.745637
 30
0.0
 10
94.449221
 20
137.713509
 30
0.0
 10
93.179881
 20
137.840443
 30
0.0
  0
LINE
  5
1a7
100
AcDbEntity
  8
Contenu
 62
7
100
AcDbLine
 10
93.179881
 20
137.840443
 30
0.0
 11
95.512294
 21
140.775792
 31
0.0
  0
LINE
  5
1a8
100
AcDbEntity
  8
Contenu
 62
7
100
AcDbLine
 10
95.512294
 20
140.775792
 30
0.0
 11
95.512294
 21
140.855126
 31
0.0
  0
LINE
  5
1a9
100
AcDbEntity
  8
Contenu
 62
7
100
AcDbLine
 10
95.512294
 20
140.855126
 30
0.0
 11
89.609862
 21
140.855126
 31
0.0
  0
LINE
  5
1aa
100
AcDbEntity
  8
Contenu
 62
7
100
AcDbLine
 10
89.609862
 20
140.855126
 30
0.0
 11
89.609862
 21
139.458852
 31
0.0
  0
LINE
  5
1ab
100
AcDbEntity
  8
Contenu
 62
7
100
AcDbLine
 10
89.609862
 20
139.458852
 30
0.0
 11
92.814946
 21
139.458852
 31
0.0
  0
LINE
  5
1ac
100
AcDbEntity
  8
Contenu
 62
7
100
AcDbLine
 10
92.814946
 20
139.458852
 30
0.0
 11
90.657068
 21
136.793238
 31
0.0
  0
LINE
  5
1ad
100
AcDbEntity
  8
Contenu
 62
7
100
AcDbLine
 10
90.657068
 20
136.793238
 30
0.0
 11
90.784002
 21
136.555236
 31
0.0
  0
SPLINE
  5
1ae
100
AcDbEntity
  8
Contenu
 62
7
100
AcDbSpline
 70
8
 71
3
 72
8
 73
4
 74
0
 40
0
 40
0
 40
0
 40
0
 40
1
 40
1
 40
1
 40
1
 10
90.784002
 20
136.555236
 30
0.0
 10
91.085470
 20
136.650437
 30
0.0
 10
91.482139
 20
136.745637
 30
0.0
 10
92.085075
 20
136.745637
 30
0.0
  0
SPLINE
  5
1af
100
AcDbEntity
  8
Contenu
 62
7
100
AcDbSpline
 70
8
 71
3
 72
8
 73
4
 74
0
 40
0
 40
0
 40
0
 40
0
 40
1
 40
1
 40
1
 40
1
 10
92.085075
 20
136.745637
 30
0.0
 10
93.037080
 20
136.745637
 30
0.0
 10
93.941485
 20
136.285502
 30
0.0
 10
93.941485
 20
135.270029
 30
0.0
  0
SPLINE
  5
1b0
100
AcDbEntity
  8
Contenu
 62
7
100
AcDbSpline
 70
8
 71
3
 72
8
 73
4
 74
0
 40
0
 40
0
 40
0
 40
0
 40
1
 40
1
 40
1
 40
1
 10
93.941485
 20
135.270029
 30
0.0
 10
93.941485
 20
134.254557
 30
0.0
 10
93.306815
 20
133.730955
 30
0.0
 10
92.307210
 20
133.730955
 30
0.0
  0
SPLINE
  5
1b1
100
AcDbEntity
  8
Contenu
 62
7
100
AcDbSpline
 70
8
 71
3
 72
8
 73
4
 74
0
 40
0
 40
0
 40
0
 40
0
 40
1
 40
1
 40
1
 40
1
 10
92.307210
 20
133.730955
 30
0.0
 10
91.339338
 20
133.730955
 30
0.0
 10
90.704668
 20
134.286291
 30
0.0
 10
90.339733
 20
135.095495
 30
0.0
  0
LINE
  5
1b2
100
AcDbEntity
  8
Contenu
 62
7
100
AcDbLine
 10
90.339733
 20
135.095495
 30
0.0
 11
88.943459
 21
134.381491
 31
0.0
  0
SPLINE
  5
1b3
100
AcDbEntity
  8
Contenu
 62
7
100
AcDbSpline
 70
8
 71
3
 72
8
 73
4
 74
0
 40
0
 40
0
 40
0
 40
0
 40
1
 40
1
 40
1
 40
1
 10
88.943459
 20
134.381491
 30
0.0
 10
89.355994
 20
133.429486
 30
0.0
 10
90.482534
 20
132.302947
 30
0.0
 10
92.307210
 20
132.302947
 30
0.0
  0
LINE
  5
1b4
100
AcDbEntity
  8
Contenu
 62
7
100
AcDbLine
 10
92.307210
 20
132.302947
 30
0.0
 11
92.307210
 21
132.302947
 31
0.0
  0
LINE
  5
1b5
100
AcDbEntity
  8
Contenu
 62
7
100
AcDbLine
 10
97.270278
 20
132.445748
 30
0.0
 11
100.316694
 21
132.445748
 31
0.0
  0
SPLINE
  5
1b6
100
AcDbEntity
  8
Contenu
 62
7
100
AcDbSpline
 70
8
 71
3
 72
8
 73
4
 74
0
 40
0
 40
0
 40
0
 40
0
 40
1
 40
1
 40
1
 40
1
 10
100.316694
 20
132.445748
 30
0.0
 10
103.854980
 20
132.445748
 30
0.0
 10
105.996991
 20
134.651226
 30
0.0
 10
105.996991
 20
137.840443
 30
0.0
  0
SPLINE
  5
1b7
100
AcDbEntity
  8
Contenu
 62
7
100
AcDbSpline
 70
8
 71
3
 72
8
 73
4
 74
0
 40
0
 40
0
 40
0
 40
0
 40
1
 40
1
 40
1
 40
1
 10
105.996991
 20
137.840443
 30
0.0
 10
105.996991
 20
141.029660
 30
0.0
 10
103.839113
 20
143.235139
 30
0.0
 10
100.316694
 20
143.235139
 30
0.0
  0
LINE
  5
1b8
100
AcDbEntity
  8
Contenu
 62
7
100
AcDbLine
 10
100.316694
 20
143.235139
 30
0.0
 11
97.270278
 21
143.235139
 31
0.0
  0
LINE
  5
1b9
100
AcDbEntity
  8
Contenu
 62
7
100
AcDbLine
 10
97.270278
 20
143.235139
 30
0.0
 11
97.270278
 21
132.445748
 31
0.0
  0
LINE
  5
1ba
100
AcDbEntity
  8
Contenu
 62
7
100
AcDbLine
 10
97.270278
 20
132.445748
 30
0.0
 11
97.270278
 21
132.445748
 31
0.0
  0
LINE
  5
1bb
100
AcDbEntity
  8
Contenu
 62
7
100
AcDbLine
 10
98.968021
 20
133.953089
 30
0.0
 11
98.968021
 21
141.727797
 31
0.0
  0
LINE
  5
1bc
100
AcDbEntity
  8
Contenu
 62
7
100
AcDbLine
 10
98.968021
 20
141.727797
 30
0.0
 11
100.221494
 21
141.727797
 31
0.0
  0
SPLINE
  5
1bd
100
AcDbEntity
  8
Contenu
 62
7
100
AcDbSpline
 70
8
 71
3
 72
8
 73
4
 74
0
 40
0
 40
0
 40
0
 40
0
 40
1
 40
1
 40
1
 40
1
 10
100.221494
 20
141.727797
 30
0.0
 10
103.014042
 20
141.727797
 30
0.0
 10
104.235782
 20
140.125255
 30
0.0
 10
104.235782
 20
137.840443
 30
0.0
  0
SPLINE
  5
1be
100
AcDbEntity
  8
Contenu
 62
7
100
AcDbSpline
 70
8
 71
3
 72
8
 73
4
 74
0
 40
0
 40
0
 40
0
 40
0
 40
1
 40
1
 40
1
 40
1
 10
104.235782
 20
137.840443
 30
0.0
 10
104.235782
 20
135.555631
 30
0.0
 10
103.014042
 20
133.953089
 30
0.0
 10
100.221494
 20
133.953089
 30
0.0
  0
LINE
  5
1bf
100
AcDbEntity
  8
Contenu
 62
7
100
AcDbLine
 10
100.221494
 20
133.953089
 30
0.0
 11
98.968021
 21
133.953089
 31
0.0
  0
LINE
  5
1c0
100
AcDbEntity
  8
Contenu
 62
7
100
AcDbLine
 10
98.968021
 20
133.953089
 30
0.0
 11
98.968021
 21
133.953089
 31
0.0
  0
SPLINE
  5
1c1
100
AcDbEntity
  8
Contenu
 62
7
100
AcDbSpline
 70
8
 71
3
 72
8
 73
4
 74
0
 40
0
 40
0
 40
0
 40
0
 40
1
 40
1
 40
1
 40
1
 10
39.528143
 20
5.788897
 30
0.0
 10
39.192688
 20
5.988287
 30
0.0
 10
38.889189
 20
6.124205
 30
0.0
 10
38.853716
 20
6.090960
 30
0.0
  0
SPLINE
  5
1c2
100
AcDbEntity
  8
Contenu
 62
7
100
AcDbSpline
 70
8
 71
3
 72
8
 73
4
 74
0
 40
0
 40
0
 40
0
 40
0
 40
1
 40
1
 40
1
 40
1
 10
38.853716
 20
6.090960
 30
0.0
 10
38.818224
 20
6.057686
 30
0.0
 10
38.796473
 20
6.318487
 30
0.0
 10
38.805357
 20
6.670418
 30
0.0
  0
SPLINE
  5
1c3
100
AcDbEntity
  8
Contenu
 62
7
100
AcDbSpline
 70
8
 71
3
 72
8
 73
4
 74
0
 40
0
 40
0
 40
0
 40
0
 40
1
 40
1
 40
1
 40
1
 10
38.805357
 20
6.670418
 30
0.0
 10
38.819468
 20
7.231278
 30
0.0
 10
38.862169
 20
7.315748
 30
0.0
 10
39.150755
 20
7.354073
 30
0.0
  0
SPLINE
  5
1c4
100
AcDbEntity
  8
Contenu
 62
7
100
AcDbSpline
 70
8
 71
3
 72
8
 73
4
 74
0
 40
0
 40
0
 40
0
 40
0
 40
1
 40
1
 40
1
 40
1
 10
39.150755
 20
7.354073
 30
0.0
 10
39.550125
 20
7.407159
 30
0.0
 10
39.892827
 20
7.165126
 30
0.0
 10
39.892827
 20
6.830071
 30
0.0
  0
SPLINE
  5
1c5
100
AcDbEntity
  8
Contenu
 62
7
100
AcDbSpline
 70
8
 71
3
 72
8
 73
4
 74
0
 40
0
 40
0
 40
0
 40
0
 40
1
 40
1
 40
1
 40
1
 10
39.892827
 20
6.830071
 30
0.0
 10
39.892827
 20
6.485055
 30
0.0
 10
40.368984
 20
6.284056
 30
0.0
 10
41.072070
 20
6.332260
 30
0.0
  0
SPLINE
  5
1c6
100
AcDbEntity
  8
Contenu
 62
7
100
AcDbSpline
 70
8
 71
3
 72
8
 73
4
 74
0
 40
0
 40
0
 40
0
 40
0
 40
1
 40
1
 40
1
 40
1
 10
41.072070
 20
6.332260
 30
0.0
 10
41.568423
 20
6.366239
 30
0.0
 10
41.724006
 20
6.449862
 30
0.0
 10
41.995109
 20
6.828096
 30
0.0
  0
SPLINE
  5
1c7
100
AcDbEntity
  8
Contenu
 62
7
100
AcDbSpline
 70
8
 71
3
 72
8
 73
4
 74
0
 40
0
 40
0
 40
0
 40
0
 40
1
 40
1
 40
1
 40
1
 10
41.995109
 20
6.828096
 30
0.0
 10
42.599530
 20
7.671319
 30
0.0
 10
42.351386
 20
8.793124
 30
0.0
 10
41.342211
 20
9.779632
 30
0.0
  0
SPLINE
  5
1c8
100
AcDbEntity
  8
Contenu
 62
7
100
AcDbSpline
 70
8
 71
3
 72
8
 73
4
 74
0
 40
0
 40
0
 40
0
 40
0
 40
1
 40
1
 40
1
 40
1
 10
41.342211
 20
9.779632
 30
0.0
 10
39.627496
 20
11.455835
 30
0.0
 10
37.379240
 20
11.563107
 30
0.0
 10
34.821884
 20
10.090698
 30
0.0
  0
SPLINE
  5
1c9
100
AcDbEntity
  8
Contenu
 62
7
100
AcDbSpline
 70
8
 71
3
 72
8
 73
4
 74
0
 40
0
 40
0
 40
0
 40
0
 40
1
 40
1
 40
1
 40
1
 10
34.821884
 20
10.090698
 30
0.0
 10
34.350505
 20
9.819313
 30
0.0
 10
33.210491
 20
9.092421
 30
0.0
 10
32.288530
 20
8.475370
 30
0.0
  0
SPLINE
  5
1ca
100
AcDbEntity
  8
Contenu
 62
7
100
AcDbSpline
 70
8
 71
3
 72
8
 73
4
 74
0
 40
0
 40
0
 40
0
 40
0
 40
1
 40
1
 40
1
 40
1
 10
32.288530
 20
8.475370
 30
0.0
 10
29.259385
 20
6.448055
 30
0.0
 10
27.651431
 20
5.736432
 30
0.0
 10
25.712379
 20
5.565010
 30
0.0
  0
SPLINE
  5
1cb
100
AcDbEntity
  8
Contenu
 62
7
100
AcDbSpline
 70
8
 71
3
 72
8
 73
4
 74
0
 40
0
 40
0
 40
0
 40
0
 40
1
 40
1
 40
1
 40
1
 10
25.712379
 20
5.565010
 30
0.0
 10
25.091635
 20
5.510174
 30
0.0
 10
24.585465
 20
5.552592
 30
0.0
 10
24.037214
 20
5.705021
 30
0.0
  0
SPLINE
  5
1cc
100
AcDbEntity
  8
Contenu
 62
7
100
AcDbSpline
 70
8
 71
3
 72
8
 73
4
 74
0
 40
0
 40
0
 40
0
 40
0
 40
1
 40
1
 40
1
 40
1
 10
24.037214
 20
5.705021
 30
0.0
 10
23.605112
 20
5.825247
 30
0.0
 10
23.142151
 20
5.932266
 30
0.0
 10
23.008397
 20
5.942821
 30
0.0
  0
SPLINE
  5
1cd
100
AcDbEntity
  8
Contenu
 62
7
100
AcDbSpline
 70
8
 71
3
 72
8
 73
4
 74
0
 40
0
 40
0
 40
0
 40
0
 40
1
 40
1
 40
1
 40
1
 10
23.008397
 20
5.942821
 30
0.0
 10
22.874660
 20
5.952981
 30
0.0
 10
22.790351
 20
5.985521
 30
0.0
 10
22.821080
 20
6.014308
 30
0.0
  0
SPLINE
  5
1ce
100
AcDbEntity
  8
Contenu
 62
7
100
AcDbSpline
 70
8
 71
3
 72
8
 73
4
 74
0
 40
0
 40
0
 40
0
 40
0
 40
1
 40
1
 40
1
 40
1
 10
22.821080
 20
6.014308
 30
0.0
 10
22.851806
 20
6.043123
 30
0.0
 10
22.589972
 20
6.271977
 30
0.0
 10
22.239229
 20
6.522901
 30
0.0
  0
SPLINE
  5
1cf
100
AcDbEntity
  8
Contenu
 62
7
100
AcDbSpline
 70
8
 71
3
 72
8
 73
4
 74
0
 40
0
 40
0
 40
0
 40
0
 40
1
 40
1
 40
1
 40
1
 10
22.239229
 20
6.522901
 30
0.0
 10
20.836360
 20
7.526539
 30
0.0
 10
20.366822
 20
8.224362
 30
0.0
 10
19.613203
 20
10.425667
 30
0.0
  0
SPLINE
  5
1d0
100
AcDbEntity
  8
Contenu
 62
7
100
AcDbSpline
 70
8
 71
3
 72
8
 73
4
 74
0
 40
0
 40
0
 40
0
 40
0
 40
1
 40
1
 40
1
 40
1
 10
19.613203
 20
10.425667
 30
0.0
 10
19.015346
 20
12.172002
 30
0.0
 10
18.397324
 20
13.018725
 30
0.0
 10
17.214776
 20
13.711806
 30
0.0
  0
SPLINE
  5
1d1
100
AcDbEntity
  8
Contenu
 62
7
100
AcDbSpline
 70
8
 71
3
 72
8
 73
4
 74
0
 40
0
 40
0
 40
0
 40
0
 40
1
 40
1
 40
1
 40
1
 10
17.214776
 20
13.711806
 30
0.0
 10
16.506568
 20
14.126899
 30
0.0
 10
16.171496
 20
14.239223
 30
0.0
 10
15.597923
 20
14.253729
 30
0.0
  0
SPLINE
  5
1d2
100
AcDbEntity
  8
Contenu
 62
7
100
AcDbSpline
 70
8
 71
3
 72
8
 73
4
 74
0
 40
0
 40
0
 40
0
 40
0
 40
1
 40
1
 40
1
 40
1
 10
15.597923
 20
14.253729
 30
0.0
 10
14.884776
 20
14.271792
 30
0.0
 10
14.871726
 20
14.265018
 30
0.0
 10
14.687829
 20
13.771242
 30
0.0
  0
SPLINE
  5
1d3
100
AcDbEntity
  8
Contenu
 62
7
100
AcDbSpline
 70
8
 71
3
 72
8
 73
4
 74
0
 40
0
 40
0
 40
0
 40
0
 40
1
 40
1
 40
1
 40
1
 10
14.687829
 20
13.771242
 30
0.0
 10
14.290859
 20
12.705571
 30
0.0
 10
13.810787
 20
12.328663
 30
0.0
 10
12.408721
 20
11.981840
 30
0.0
  0
SPLINE
  5
1d4
100
AcDbEntity
  8
Contenu
 62
7
100
AcDbSpline
 70
8
 71
3
 72
8
 73
4
 74
0
 40
0
 40
0
 40
0
 40
0
 40
1
 40
1
 40
1
 40
1
 10
12.408721
 20
11.981840
 30
0.0
 10
11.635327
 20
11.790466
 30
0.0
 10
11.181264
 20
11.908999
 30
0.0
 10
11.181382
 20
12.302050
 30
0.0
  0
SPLINE
  5
1d5
100
AcDbEntity
  8
Contenu
 62
7
100
AcDbSpline
 70
8
 71
3
 72
8
 73
4
 74
0
 40
0
 40
0
 40
0
 40
0
 40
1
 40
1
 40
1
 40
1
 10
11.181382
 20
12.302050
 30
0.0
 10
11.181472
 20
12.592964
 30
0.0
 10
11.692196
 20
13.860283
 30
0.0
 10
11.968836
 20
14.255959
 30
0.0
  0
SPLINE
  5
1d6
100
AcDbEntity
  8
Contenu
 62
7
100
AcDbSpline
 70
8
 71
3
 72
8
 73
4
 74
0
 40
0
 40
0
 40
0
 40
0
 40
1
 40
1
 40
1
 40
1
 10
11.968836
 20
14.255959
 30
0.0
 10
12.224154
 20
14.621154
 30
0.0
 10
13.179287
 20
15.142278
 30
0.0
 10
13.593381
 20
15.142278
 30
0.0
  0
SPLINE
  5
1d7
100
AcDbEntity
  8
Contenu
 62
7
100
AcDbSpline
 70
8
 71
3
 72
8
 73
4
 74
0
 40
0
 40
0
 40
0
 40
0
 40
1
 40
1
 40
1
 40
1
 10
13.593381
 20
15.142278
 30
0.0
 10
13.849831
 20
15.142278
 30
0.0
 10
13.895333
 20
15.222034
 30
0.0
 10
13.895333
 20
15.671501
 30
0.0
  0
SPLINE
  5
1d8
100
AcDbEntity
  8
Contenu
 62
7
100
AcDbSpline
 70
8
 71
3
 72
8
 73
4
 74
0
 40
0
 40
0
 40
0
 40
0
 40
1
 40
1
 40
1
 40
1
 10
13.895333
 20
15.671501
 30
0.0
 10
13.895333
 20
16.279746
 30
0.0
 10
13.734350
 20
16.673559
 30
0.0
 10
13.091080
 20
17.638957
 30
0.0
  0
SPLINE
  5
1d9
100
AcDbEntity
  8
Contenu
 62
7
100
AcDbSpline
 70
8
 71
3
 72
8
 73
4
 74
0
 40
0
 40
0
 40
0
 40
0
 40
1
 40
1
 40
1
 40
1
 10
13.091080
 20
17.638957
 30
0.0
 10
12.476869
 20
18.560779
 30
0.0
 10
11.666500
 20
19.052975
 30
0.0
 10
9.805981
 20
19.634324
 30
0.0
  0
SPLINE
  5
1da
100
AcDbEntity
  8
Contenu
 62
7
100
AcDbSpline
 70
8
 71
3
 72
8
 73
4
 74
0
 40
0
 40
0
 40
0
 40
0
 40
1
 40
1
 40
1
 40
1
 10
9.805981
 20
19.634324
 30
0.0
 10
7.839086
 20
20.248891
 30
0.0
 10
7.011800
 20
20.666834
 30
0.0
 10
6.146912
 20
21.482936
 30
0.0
  0
SPLINE
  5
1db
100
AcDbEntity
  8
Contenu
 62
7
100
AcDbSpline
 70
8
 71
3
 72
8
 73
4
 74
0
 40
0
 40
0
 40
0
 40
0
 40
1
 40
1
 40
1
 40
1
 10
6.146912
 20
21.482936
 30
0.0
 10
5.354058
 20
22.231051
 30
0.0
 10
4.920855
 20
22.950830
 30
0.0
 10
4.674182
 20
23.929831
 30
0.0
  0
SPLINE
  5
1dc
100
AcDbEntity
  8
Contenu
 62
7
100
AcDbSpline
 70
8
 71
3
 72
8
 73
4
 74
0
 40
0
 40
0
 40
0
 40
0
 40
1
 40
1
 40
1
 40
1
 10
4.674182
 20
23.929831
 30
0.0
 10
4.523305
 20
24.528735
 30
0.0
 10
4.517753
 20
25.625761
 30
0.0
 10
4.662433
 20
26.254270
 30
0.0
  0
SPLINE
  5
1dd
100
AcDbEntity
  8
Contenu
 62
7
100
AcDbSpline
 70
8
 71
3
 72
8
 73
4
 74
0
 40
0
 40
0
 40
0
 40
0
 40
1
 40
1
 40
1
 40
1
 10
4.662433
 20
26.254270
 30
0.0
 10
4.929087
 20
27.412679
 30
0.0
 10
5.748250
 20
28.964478
 30
0.0
 10
6.934862
 20
30.559203
 30
0.0
  0
SPLINE
  5
1de
100
AcDbEntity
  8
Contenu
 62
7
100
AcDbSpline
 70
8
 71
3
 72
8
 73
4
 74
0
 40
0
 40
0
 40
0
 40
0
 40
1
 40
1
 40
1
 40
1
 10
6.934862
 20
30.559203
 30
0.0
 10
7.424144
 20
31.216752
 30
0.0
 10
8.169310
 20
32.219093
 30
0.0
 10
8.590789
 20
32.786614
 30
0.0
  0
SPLINE
  5
1df
100
AcDbEntity
  8
Contenu
 62
7
100
AcDbSpline
 70
8
 71
3
 72
8
 73
4
 74
0
 40
0
 40
0
 40
0
 40
0
 40
1
 40
1
 40
1
 40
1
 10
8.590789
 20
32.786614
 30
0.0
 10
9.791625
 20
34.403521
 30
0.0
 10
10.379857
 20
35.656732
 30
0.0
 10
10.445119
 20
36.737146
 30
0.0
  0
SPLINE
  5
1e0
100
AcDbEntity
  8
Contenu
 62
7
100
AcDbSpline
 70
8
 71
3
 72
8
 73
4
 74
0
 40
0
 40
0
 40
0
 40
0
 40
1
 40
1
 40
1
 40
1
 10
10.445119
 20
36.737146
 30
0.0
 10
10.518341
 20
37.949121
 30
0.0
 10
10.289627
 20
38.637518
 30
0.0
 10
9.506295
 20
39.562989
 30
0.0
  0
SPLINE
  5
1e1
100
AcDbEntity
  8
Contenu
 62
7
100
AcDbSpline
 70
8
 71
3
 72
8
 73
4
 74
0
 40
0
 40
0
 40
0
 40
0
 40
1
 40
1
 40
1
 40
1
 10
9.506295
 20
39.562989
 30
0.0
 10
8.686524
 20
40.531525
 30
0.0
 10
7.609827
 20
41.051536
 30
0.0
 10
6.691506
 20
40.922468
 30
0.0
  0
SPLINE
  5
1e2
100
AcDbEntity
  8
Contenu
 62
7
100
AcDbSpline
 70
8
 71
3
 72
8
 73
4
 74
0
 40
0
 40
0
 40
0
 40
0
 40
1
 40
1
 40
1
 40
1
 10
6.691506
 20
40.922468
 30
0.0
 10
5.318276
 20
40.729459
 30
0.0
 10
4.846492
 20
39.505549
 30
0.0
 10
5.821218
 20
38.664775
 30
0.0
  0
SPLINE
  5
1e3
100
AcDbEntity
  8
Contenu
 62
7
100
AcDbSpline
 70
8
 71
3
 72
8
 73
4
 74
0
 40
0
 40
0
 40
0
 40
0
 40
1
 40
1
 40
1
 40
1
 10
5.821218
 20
38.664775
 30
0.0
 10
6.277900
 20
38.270855
 30
0.0
 10
6.303212
 20
38.209655
 30
0.0
 10
6.136605
 20
37.901787
 30
0.0
  0
SPLINE
  5
1e4
100
AcDbEntity
  8
Contenu
 62
7
100
AcDbSpline
 70
8
 71
3
 72
8
 73
4
 74
0
 40
0
 40
0
 40
0
 40
0
 40
1
 40
1
 40
1
 40
1
 10
6.136605
 20
37.901787
 30
0.0
 10
5.769201
 20
37.222927
 30
0.0
 10
4.967952
 20
37.689835
 30
0.0
 10
4.544898
 20
38.829333
 30
0.0
  0
SPLINE
  5
1e5
100
AcDbEntity
  8
Contenu
 62
7
100
AcDbSpline
 70
8
 71
3
 72
8
 73
4
 74
0
 40
0
 40
0
 40
0
 40
0
 40
1
 40
1
 40
1
 40
1
 10
4.544898
 20
38.829333
 30
0.0
 10
4.262930
 20
39.588821
 30
0.0
 10
4.267721
 20
39.918569
 30
0.0
 10
4.570270
 20
40.573127
 30
0.0
  0
SPLINE
  5
1e6
100
AcDbEntity
  8
Contenu
 62
7
100
AcDbSpline
 70
8
 71
3
 72
8
 73
4
 74
0
 40
0
 40
0
 40
0
 40
0
 40
1
 40
1
 40
1
 40
1
 10
4.570270
 20
40.573127
 30
0.0
 10
4.917694
 20
41.324719
 30
0.0
 10
5.869386
 20
41.796868
 30
0.0
 10
7.047576
 20
41.802154
 30
0.0
  0
LINE
  5
1e7
100
AcDbEntity
  8
Contenu
 62
7
100
AcDbLine
 10
7.047576
 20
41.802154
 30
0.0
 11
7.918817
 21
41.806049
 31
0.0
  0
LINE
  5
1e8
100
AcDbEntity
  8
Contenu
 62
7
100
AcDbLine
 10
7.918817
 20
41.806049
 30
0.0
 11
7.843974
 21
42.498041
 31
0.0
  0
SPLINE
  5
1e9
100
AcDbEntity
  8
Contenu
 62
7
100
AcDbSpline
 70
8
 71
3
 72
8
 73
4
 74
0
 40
0
 40
0
 40
0
 40
0
 40
1
 40
1
 40
1
 40
1
 10
7.843974
 20
42.498041
 30
0.0
 10
7.802802
 20
42.878635
 30
0.0
 10
7.731930
 20
46.021566
 30
0.0
 10
7.686474
 20
49.482350
 30
0.0
  0
SPLINE
  5
1ea
100
AcDbEntity
  8
Contenu
 62
7
100
AcDbSpline
 70
8
 71
3
 72
8
 73
4
 74
0
 40
0
 40
0
 40
0
 40
0
 40
1
 40
1
 40
1
 40
1
 10
7.686474
 20
49.482350
 30
0.0
 10
7.641016
 20
52.943136
 30
0.0
 10
7.573567
 20
57.190462
 30
0.0
 10
7.536577
 20
58.920854
 30
0.0
  0
SPLINE
  5
1eb
100
AcDbEntity
  8
Contenu
 62
7
100
AcDbSpline
 70
8
 71
3
 72
8
 73
4
 74
0
 40
0
 40
0
 40
0
 40
0
 40
1
 40
1
 40
1
 40
1
 10
7.536577
 20
58.920854
 30
0.0
 10
7.449086
 20
63.014149
 30
0.0
 10
7.450069
 20
97.711127
 30
0.0
 10
7.538158
 20
102.230863
 30
0.0
  0
SPLINE
  5
1ec
100
AcDbEntity
  8
Contenu
 62
7
100
AcDbSpline
 70
8
 71
3
 72
8
 73
4
 74
0
 40
0
 40
0
 40
0
 40
0
 40
1
 40
1
 40
1
 40
1
 10
7.538158
 20
102.230863
 30
0.0
 10
7.575327
 20
104.145340
 30
0.0
 10
7.646078
 20
108.332422
 30
0.0
 10
7.695361
 20
111.535487
 30
0.0
  0
SPLINE
  5
1ed
100
AcDbEntity
  8
Contenu
 62
7
100
AcDbSpline
 70
8
 71
3
 72
8
 73
4
 74
0
 40
0
 40
0
 40
0
 40
0
 40
1
 40
1
 40
1
 40
1
 10
7.695361
 20
111.535487
 30
0.0
 10
7.744657
 20
114.738551
 30
0.0
 10
7.816584
 20
117.827569
 30
0.0
 10
7.855211
 20
118.399975
 30
0.0
  0
LINE
  5
1ee
100
AcDbEntity
  8
Contenu
 62
7
100
AcDbLine
 10
7.855211
 20
118.399975
 30
0.0
 11
7.925426
 21
119.440712
 31
0.0
  0
LINE
  5
1ef
100
AcDbEntity
  8
Contenu
 62
7
100
AcDbLine
 10
7.925426
 20
119.440712
 30
0.0
 11
7.471439
 21
119.408287
 31
0.0
  0
SPLINE
  5
1f0
100
AcDbEntity
  8
Contenu
 62
7
100
AcDbSpline
 70
8
 71
3
 72
8
 73
4
 74
0
 40
0
 40
0
 40
0
 40
0
 40
1
 40
1
 40
1
 40
1
 10
7.471439
 20
119.408287
 30
0.0
 10
7.221744
 20
119.390451
 30
0.0
 10
6.984477
 20
119.325858
 30
0.0
 10
6.944167
 20
119.264740
 30
0.0
  0
SPLINE
  5
1f1
100
AcDbEntity
  8
Contenu
 62
7
100
AcDbSpline
 70
8
 71
3
 72
8
 73
4
 74
0
 40
0
 40
0
 40
0
 40
0
 40
1
 40
1
 40
1
 40
1
 10
6.944167
 20
119.264740
 30
0.0
 10
6.903858
 20
119.203617
 30
0.0
 10
6.796266
 20
119.208477
 30
0.0
 10
6.705055
 20
119.275521
 30
0.0
  0
SPLINE
  5
1f2
100
AcDbEntity
  8
Contenu
 62
7
100
AcDbSpline
 70
8
 71
3
 72
8
 73
4
 74
0
 40
0
 40
0
 40
0
 40
0
 40
1
 40
1
 40
1
 40
1
 10
6.705055
 20
119.275521
 30
0.0
 10
6.613828
 20
119.342577
 30
0.0
 10
6.346370
 20
119.440565
 30
0.0
 10
6.110677
 20
119.493267
 30
0.0
  0
SPLINE
  5
1f3
100
AcDbEntity
  8
Contenu
 62
7
100
AcDbSpline
 70
8
 71
3
 72
8
 73
4
 74
0
 40
0
 40
0
 40
0
 40
0
 40
1
 40
1
 40
1
 40
1
 10
6.110677
 20
119.493267
 30
0.0
 10
4.778662
 20
119.791119
 30
0.0
 10
3.984230
 20
121.186236
 30
0.0
 10
4.491041
 20
122.337525
 30
0.0
  0
SPLINE
  5
1f4
100
AcDbEntity
  8
Contenu
 62
7
100
AcDbSpline
 70
8
 71
3
 72
8
 73
4
 74
0
 40
0
 40
0
 40
0
 40
0
 40
1
 40
1
 40
1
 40
1
 10
4.491041
 20
122.337525
 30
0.0
 10
4.582298
 20
122.544815
 30
0.0
 10
4.646576
 20
122.759597
 30
0.0
 10
4.633885
 20
122.814819
 30
0.0
  0
SPLINE
  5
1f5
100
AcDbEntity
  8
Contenu
 62
7
100
AcDbSpline
 70
8
 71
3
 72
8
 73
4
 74
0
 40
0
 40
0
 40
0
 40
0
 40
1
 40
1
 40
1
 40
1
 10
4.633885
 20
122.814819
 30
0.0
 10
4.621225
 20
122.870047
 30
0.0
 10
4.678449
 20
122.915231
 30
0.0
 10
4.761090
 20
122.915231
 30
0.0
  0
SPLINE
  5
1f6
100
AcDbEntity
  8
Contenu
 62
7
100
AcDbSpline
 70
8
 71
3
 72
8
 73
4
 74
0
 40
0
 40
0
 40
0
 40
0
 40
1
 40
1
 40
1
 40
1
 10
4.761090
 20
122.915231
 30
0.0
 10
4.843745
 20
122.915231
 30
0.0
 10
4.977677
 20
123.093508
 30
0.0
 10
5.058723
 20
123.311395
 30
0.0
  0
SPLINE
  5
1f7
100
AcDbEntity
  8
Contenu
 62
7
100
AcDbSpline
 70
8
 71
3
 72
8
 73
4
 74
0
 40
0
 40
0
 40
0
 40
0
 40
1
 40
1
 40
1
 40
1
 10
5.058723
 20
123.311395
 30
0.0
 10
5.244152
 20
123.809935
 30
0.0
 10
5.680450
 20
123.955909
 30
0.0
 10
6.049492
 20
123.642888
 30
0.0
  0
SPLINE
  5
1f8
100
AcDbEntity
  8
Contenu
 62
7
100
AcDbSpline
 70
8
 71
3
 72
8
 73
4
 74
0
 40
0
 40
0
 40
0
 40
0
 40
1
 40
1
 40
1
 40
1
 10
6.049492
 20
123.642888
 30
0.0
 10
6.414100
 20
123.333629
 30
0.0
 10
6.406466
 20
123.299770
 30
0.0
 10
5.824990
 20
122.647473
 30
0.0
  0
SPLINE
  5
1f9
100
AcDbEntity
  8
Contenu
 62
7
100
AcDbSpline
 70
8
 71
3
 72
8
 73
4
 74
0
 40
0
 40
0
 40
0
 40
0
 40
1
 40
1
 40
1
 40
1
 10
5.824990
 20
122.647473
 30
0.0
 10
5.035647
 20
121.761984
 30
0.0
 10
5.162257
 20
120.801240
 30
0.0
 10
6.117581
 20
120.427126
 30
0.0
  0
SPLINE
  5
1fa
100
AcDbEntity
  8
Contenu
 62
7
100
AcDbSpline
 70
8
 71
3
 72
8
 73
4
 74
0
 40
0
 40
0
 40
0
 40
0
 40
1
 40
1
 40
1
 40
1
 10
6.117581
 20
120.427126
 30
0.0
 10
6.685042
 20
120.204910
 30
0.0
 10
7.610533
 20
120.175339
 30
0.0
 10
7.610533
 20
120.379419
 30
0.0
  0
SPLINE
  5
1fb
100
AcDbEntity
  8
Contenu
 62
7
100
AcDbSpline
 70
8
 71
3
 72
8
 73
4
 74
0
 40
0
 40
0
 40
0
 40
0
 40
1
 40
1
 40
1
 40
1
 10
7.610533
 20
120.379419
 30
0.0
 10
7.610533
 20
120.457403
 30
0.0
 10
7.672998
 20
120.485021
 30
0.0
 10
7.749344
 20
120.440797
 30
0.0
  0
SPLINE
  5
1fc
100
AcDbEntity
  8
Contenu
 62
7
100
AcDbSpline
 70
8
 71
3
 72
8
 73
4
 74
0
 40
0
 40
0
 40
0
 40
0
 40
1
 40
1
 40
1
 40
1
 10
7.749344
 20
120.440797
 30
0.0
 10
8.089800
 20
120.243586
 30
0.0
 10
9.669276
 20
121.594499
 30
0.0
 10
10.105411
 20
122.455934
 30
0.0
  0
SPLINE
  5
1fd
100
AcDbEntity
  8
Contenu
 62
7
100
AcDbSpline
 70
8
 71
3
 72
8
 73
4
 74
0
 40
0
 40
0
 40
0
 40
0
 40
1
 40
1
 40
1
 40
1
 10
10.105411
 20
122.455934
 30
0.0
 10
11.006008
 20
124.234679
 30
0.0
 10
10.427360
 20
126.064281
 30
0.0
 10
7.948938
 20
129.274505
 30
0.0
  0
SPLINE
  5
1fe
100
AcDbEntity
  8
Contenu
 62
7
100
AcDbSpline
 70
8
 71
3
 72
8
 73
4
 74
0
 40
0
 40
0
 40
0
 40
0
 40
1
 40
1
 40
1
 40
1
 10
7.948938
 20
129.274505
 30
0.0
 10
6.615836
 20
131.001234
 30
0.0
 10
5.696252
 20
132.394009
 30
0.0
 10
5.252933
 20
133.357826
 30
0.0
  0
SPLINE
  5
1ff
100
AcDbEntity
  8
Contenu
 62
7
100
AcDbSpline
 70
8
 71
3
 72
8
 73
4
 74
0
 40
0
 40
0
 40
0
 40
0
 40
1
 40
1
 40
1
 40
1
 10
5.252933
 20
133.357826
 30
0.0
 10
5.100521
 20
133.689177
 30
0.0
 10
4.920345
 20
133.997144
 30
0.0
 10
4.852539
 20
134.042192
 30
0.0
  0
SPLINE
  5
200
100
AcDbEntity
  8
Contenu
 62
7
100
AcDbSpline
 70
8
 71
3
 72
8
 73
4
 74
0
 40
0
 40
0
 40
0
 40
0
 40
1
 40
1
 40
1
 40
1
 10
4.852539
 20
134.042192
 30
0.0
 10
4.784733
 20
134.087243
 30
0.0
 10
4.746597
 20
134.147487
 30
0.0
 10
4.767785
 20
134.176073
 30
0.0
  0
SPLINE
  5
201
100
AcDbEntity
  8
Contenu
 62
7
100
AcDbSpline
 70
8
 71
3
 72
8
 73
4
 74
0
 40
0
 40
0
 40
0
 40
0
 40
1
 40
1
 40
1
 40
1
 10
4.767785
 20
134.176073
 30
0.0
 10
4.788960
 20
134.204656
 30
0.0
 10
4.723130
 20
134.683723
 30
0.0
 10
4.621491
 20
135.240660
 30
0.0
  0
SPLINE
  5
202
100
AcDbEntity
  8
Contenu
 62
7
100
AcDbSpline
 70
8
 71
3
 72
8
 73
4
 74
0
 40
0
 40
0
 40
0
 40
0
 40
1
 40
1
 40
1
 40
1
 10
4.621491
 20
135.240660
 30
0.0
 10
4.395648
 20
136.478030
 30
0.0
 10
4.573487
 20
137.497600
 30
0.0
 10
5.194397
 20
138.525216
 30
0.0
  0
SPLINE
  5
203
100
AcDbEntity
  8
Contenu
 62
7
100
AcDbSpline
 70
8
 71
3
 72
8
 73
4
 74
0
 40
0
 40
0
 40
0
 40
0
 40
1
 40
1
 40
1
 40
1
 10
5.194397
 20
138.525216
 30
0.0
 10
5.421190
 20
138.900549
 30
0.0
 10
5.559420
 20
139.251981
 30
0.0
 10
5.501599
 20
139.306176
 30
0.0
  0
SPLINE
  5
204
100
AcDbEntity
  8
Contenu
 62
7
100
AcDbSpline
 70
8
 71
3
 72
8
 73
4
 74
0
 40
0
 40
0
 40
0
 40
0
 40
1
 40
1
 40
1
 40
1
 10
5.501599
 20
139.306176
 30
0.0
 10
5.443776
 20
139.360371
 30
0.0
 10
5.460739
 20
139.387219
 30
0.0
 10
5.539302
 20
139.365835
 30
0.0
  0
SPLINE
  5
205
100
AcDbEntity
  8
Contenu
 62
7
100
AcDbSpline
 70
8
 71
3
 72
8
 73
4
 74
0
 40
0
 40
0
 40
0
 40
0
 40
1
 40
1
 40
1
 40
1
 10
5.539302
 20
139.365835
 30
0.0
 10
5.617868
 20
139.344442
 30
0.0
 10
5.907126
 20
139.529865
 30
0.0
 10
6.182100
 20
139.777868
 30
0.0
  0
SPLINE
  5
206
100
AcDbEntity
  8
Contenu
 62
7
100
AcDbSpline
 70
8
 71
3
 72
8
 73
4
 74
0
 40
0
 40
0
 40
0
 40
0
 40
1
 40
1
 40
1
 40
1
 10
6.182100
 20
139.777868
 30
0.0
 10
7.025543
 20
140.538581
 30
0.0
 10
7.880520
 20
140.966616
 30
0.0
 10
9.548515
 20
141.463234
 30
0.0
  0
SPLINE
  5
207
100
AcDbEntity
  8
Contenu
 62
7
100
AcDbSpline
 70
8
 71
3
 72
8
 73
4
 74
0
 40
0
 40
0
 40
0
 40
0
 40
1
 40
1
 40
1
 40
1
 10
9.548515
 20
141.463234
 30
0.0
 10
11.408410
 20
142.016996
 30
0.0
 10
12.277924
 20
142.490413
 30
0.0
 10
12.907269
 20
143.291938
 30
0.0
  0
SPLINE
  5
208
100
AcDbEntity
  8
Contenu
 62
7
100
AcDbSpline
 70
8
 71
3
 72
8
 73
4
 74
0
 40
0
 40
0
 40
0
 40
0
 40
1
 40
1
 40
1
 40
1
 10
12.907269
 20
143.291938
 30
0.0
 10
13.846106
 20
144.487640
 30
0.0
 10
14.217754
 20
145.861013
 30
0.0
 10
13.645666
 20
146.020657
 30
0.0
  0
SPLINE
  5
209
100
AcDbEntity
  8
Contenu
 62
7
100
AcDbSpline
 70
8
 71
3
 72
8
 73
4
 74
0
 40
0
 40
0
 40
0
 40
0
 40
1
 40
1
 40
1
 40
1
 10
13.645666
 20
146.020657
 30
0.0
 10
12.962398
 20
146.211332
 30
0.0
 10
12.219745
 20
146.660907
 30
0.0
 10
11.929774
 20
147.059419
 30
0.0
  0
SPLINE
  5
20a
100
AcDbEntity
  8
Contenu
 62
7
100
AcDbSpline
 70
8
 71
3
 72
8
 73
4
 74
0
 40
0
 40
0
 40
0
 40
0
 40
1
 40
1
 40
1
 40
1
 10
11.929774
 20
147.059419
 30
0.0
 10
11.501600
 20
147.647832
 30
0.0
 10
11.163003
 20
148.872863
 30
0.0
 10
11.341945
 20
149.186211
 30
0.0
  0
SPLINE
  5
20b
100
AcDbEntity
  8
Contenu
 62
7
100
AcDbSpline
 70
8
 71
3
 72
8
 73
4
 74
0
 40
0
 40
0
 40
0
 40
0
 40
1
 40
1
 40
1
 40
1
 10
11.341945
 20
149.186211
 30
0.0
 10
11.481394
 20
149.430427
 30
0.0
 10
12.104905
 20
149.513990
 30
0.0
 10
12.241545
 20
149.306774
 30
0.0
  0
SPLINE
  5
20c
100
AcDbEntity
  8
Contenu
 62
7
100
AcDbSpline
 70
8
 71
3
 72
8
 73
4
 74
0
 40
0
 40
0
 40
0
 40
0
 40
1
 40
1
 40
1
 40
1
 10
12.241545
 20
149.306774
 30
0.0
 10
12.283818
 20
149.242653
 30
0.0
 10
12.527617
 20
149.150976
 30
0.0
 10
12.783293
 20
149.103049
 30
0.0
  0
SPLINE
  5
20d
100
AcDbEntity
  8
Contenu
 62
7
100
AcDbSpline
 70
8
 71
3
 72
8
 73
4
 74
0
 40
0
 40
0
 40
0
 40
0
 40
1
 40
1
 40
1
 40
1
 10
12.783293
 20
149.103049
 30
0.0
 10
13.782899
 20
148.915676
 30
0.0
 10
14.406321
 20
148.303065
 30
0.0
 10
14.807533
 20
147.113941
 30
0.0
  0
SPLINE
  5
20e
100
AcDbEntity
  8
Contenu
 62
7
100
AcDbSpline
 70
8
 71
3
 72
8
 73
4
 74
0
 40
0
 40
0
 40
0
 40
0
 40
1
 40
1
 40
1
 40
1
 10
14.807533
 20
147.113941
 30
0.0
 10
15.001323
 20
146.539565
 30
0.0
 10
16.808917
 20
147.038370
 30
0.0
 10
17.971126
 20
147.986933
 30
0.0
  0
SPLINE
  5
20f
100
AcDbEntity
  8
Contenu
 62
7
100
AcDbSpline
 70
8
 71
3
 72
8
 73
4
 74
0
 40
0
 40
0
 40
0
 40
0
 40
1
 40
1
 40
1
 40
1
 10
17.971126
 20
147.986933
 30
0.0
 10
18.614279
 20
148.511864
 30
0.0
 10
19.410258
 20
149.846710
 30
0.0
 10
19.242522
 20
150.119055
 30
0.0
  0
SPLINE
  5
210
100
AcDbEntity
  8
Contenu
 62
7
100
AcDbSpline
 70
8
 71
3
 72
8
 73
4
 74
0
 40
0
 40
0
 40
0
 40
0
 40
1
 40
1
 40
1
 40
1
 10
19.242522
 20
150.119055
 30
0.0
 10
19.182989
 20
150.215730
 30
0.0
 10
19.190459
 20
150.246235
 30
0.0
 10
19.259269
 20
150.187451
 30
0.0
  0
SPLINE
  5
211
100
AcDbEntity
  8
Contenu
 62
7
100
AcDbSpline
 70
8
 71
3
 72
8
 73
4
 74
0
 40
0
 40
0
 40
0
 40
0
 40
1
 40
1
 40
1
 40
1
 10
19.259269
 20
150.187451
 30
0.0
 10
19.327595
 20
150.129079
 30
0.0
 10
19.562005
 20
150.604344
 30
0.0
 10
19.780170
 20
151.243600
 30
0.0
  0
SPLINE
  5
212
100
AcDbEntity
  8
Contenu
 62
7
100
AcDbSpline
 70
8
 71
3
 72
8
 73
4
 74
0
 40
0
 40
0
 40
0
 40
0
 40
1
 40
1
 40
1
 40
1
 10
19.780170
 20
151.243600
 30
0.0
 10
20.261774
 20
152.654751
 30
0.0
 10
20.662481
 20
153.313559
 30
0.0
 10
21.532993
 20
154.125380
 30
0.0
  0
SPLINE
  5
213
100
AcDbEntity
  8
Contenu
 62
7
100
AcDbSpline
 70
8
 71
3
 72
8
 73
4
 74
0
 40
0
 40
0
 40
0
 40
0
 40
1
 40
1
 40
1
 40
1
 10
21.532993
 20
154.125380
 30
0.0
 10
23.248839
 20
155.725566
 30
0.0
 10
25.340585
 20
156.050815
 30
0.0
 10
27.954484
 20
155.123871
 30
0.0
  0
SPLINE
  5
214
100
AcDbEntity
  8
Contenu
 62
7
100
AcDbSpline
 70
8
 71
3
 72
8
 73
4
 74
0
 40
0
 40
0
 40
0
 40
0
 40
1
 40
1
 40
1
 40
1
 10
27.954484
 20
155.123871
 30
0.0
 10
29.147882
 20
154.700661
 30
0.0
 10
29.741545
 20
154.366273
 30
0.0
 10
32.608116
 20
152.502647
 30
0.0
  0
SPLINE
  5
215
100
AcDbEntity
  8
Contenu
 62
7
100
AcDbSpline
 70
8
 71
3
 72
8
 73
4
 74
0
 40
0
 40
0
 40
0
 40
0
 40
1
 40
1
 40
1
 40
1
 10
32.608116
 20
152.502647
 30
0.0
 10
35.749986
 20
150.460030
 30
0.0
 10
36.733488
 20
150.040983
 30
0.0
 10
38.324067
 20
150.067199
 30
0.0
  0
SPLINE
  5
216
100
AcDbEntity
  8
Contenu
 62
7
100
AcDbSpline
 70
8
 71
3
 72
8
 73
4
 74
0
 40
0
 40
0
 40
0
 40
0
 40
1
 40
1
 40
1
 40
1
 10
38.324067
 20
150.067199
 30
0.0
 10
40.673361
 20
150.105928
 30
0.0
 10
42.795483
 20
152.290391
 30
0.0
 10
42.180481
 20
154.036906
 30
0.0
  0
SPLINE
  5
217
100
AcDbEntity
  8
Contenu
 62
7
100
AcDbSpline
 70
8
 71
3
 72
8
 73
4
 74
0
 40
0
 40
0
 40
0
 40
0
 40
1
 40
1
 40
1
 40
1
 10
42.180481
 20
154.036906
 30
0.0
 10
41.947868
 20
154.697509
 30
0.0
 10
41.474268
 20
154.966664
 30
0.0
 10
40.711452
 20
154.871776
 30
0.0
  0
SPLINE
  5
218
100
AcDbEntity
  8
Contenu
 62
7
100
AcDbSpline
 70
8
 71
3
 72
8
 73
4
 74
0
 40
0
 40
0
 40
0
 40
0
 40
1
 40
1
 40
1
 40
1
 10
40.711452
 20
154.871776
 30
0.0
 10
40.270398
 20
154.816912
 30
0.0
 10
40.008219
 20
154.685817
 30
0.0
 10
39.739880
 20
154.385953
 30
0.0
  0
SPLINE
  5
219
100
AcDbEntity
  8
Contenu
 62
7
100
AcDbSpline
 70
8
 71
3
 72
8
 73
4
 74
0
 40
0
 40
0
 40
0
 40
0
 40
1
 40
1
 40
1
 40
1
 10
39.739880
 20
154.385953
 30
0.0
 10
39.217043
 20
153.801691
 30
0.0
 10
38.464690
 20
153.886916
 30
0.0
 10
38.464690
 20
154.530400
 30
0.0
  0
SPLINE
  5
21a
100
AcDbEntity
  8
Contenu
 62
7
100
AcDbSpline
 70
8
 71
3
 72
8
 73
4
 74
0
 40
0
 40
0
 40
0
 40
0
 40
1
 40
1
 40
1
 40
1
 10
38.464690
 20
154.530400
 30
0.0
 10
38.464690
 20
154.855082
 30
0.0
 10
39.909063
 20
155.725224
 30
0.0
 10
40.590125
 20
155.810839
 30
0.0
  0
SPLINE
  5
21b
100
AcDbEntity
  8
Contenu
 62
7
100
AcDbSpline
 70
8
 71
3
 72
8
 73
4
 74
0
 40
0
 40
0
 40
0
 40
0
 40
1
 40
1
 40
1
 40
1
 10
40.590125
 20
155.810839
 30
0.0
 10
41.684594
 20
155.948425
 30
0.0
 10
42.712380
 20
155.361979
 30
0.0
 10
43.048193
 20
154.408288
 30
0.0
  0
SPLINE
  5
21c
100
AcDbEntity
  8
Contenu
 62
7
100
AcDbSpline
 70
8
 71
3
 72
8
 73
4
 74
0
 40
0
 40
0
 40
0
 40
0
 40
1
 40
1
 40
1
 40
1
 10
43.048193
 20
154.408288
 30
0.0
 10
43.200023
 20
153.977114
 30
0.0
 10
43.215068
 20
153.970561
 30
0.0
 10
43.869203
 20
154.050506
 30
0.0
  0
SPLINE
  5
21d
100
AcDbEntity
  8
Contenu
 62
7
100
AcDbSpline
 70
8
 71
3
 72
8
 73
4
 74
0
 40
0
 40
0
 40
0
 40
0
 40
1
 40
1
 40
1
 40
1
 10
43.869203
 20
154.050506
 30
0.0
 10
47.004034
 20
154.433645
 30
0.0
 10
83.434647
 20
154.431407
 30
0.0
 10
87.802324
 20
154.047684
 30
0.0
  0
LINE
  5
21e
100
AcDbEntity
  8
Contenu
 62
7
100
AcDbLine
 10
87.802324
 20
154.047684
 30
0.0
 11
88.819027
 21
153.958386
 31
0.0
  0
LINE
  5
21f
100
AcDbEntity
  8
Contenu
 62
7
100
AcDbLine
 10
88.819027
 20
153.958386
 30
0.0
 11
88.992046
 21
154.388024
 31
0.0
  0
SPLINE
  5
220
100
AcDbEntity
  8
Contenu
 62
7
100
AcDbSpline
 70
8
 71
3
 72
8
 73
4
 74
0
 40
0
 40
0
 40
0
 40
0
 40
1
 40
1
 40
1
 40
1
 10
88.992046
 20
154.388024
 30
0.0
 10
89.087217
 20
154.624320
 30
0.0
 10
89.124654
 20
154.884134
 30
0.0
 10
89.075251
 20
154.965386
 30
0.0
  0
SPLINE
  5
221
100
AcDbEntity
  8
Contenu
 62
7
100
AcDbSpline
 70
8
 71
3
 72
8
 73
4
 74
0
 40
0
 40
0
 40
0
 40
0
 40
1
 40
1
 40
1
 40
1
 10
89.075251
 20
154.965386
 30
0.0
 10
89.025868
 20
155.046638
 30
0.0
 10
89.037142
 20
155.069303
 30
0.0
 10
89.100312
 20
155.015751
 30
0.0
  0
SPLINE
  5
222
100
AcDbEntity
  8
Contenu
 62
7
100
AcDbSpline
 70
8
 71
3
 72
8
 73
4
 74
0
 40
0
 40
0
 40
0
 40
0
 40
1
 40
1
 40
1
 40
1
 10
89.100312
 20
155.015751
 30
0.0
 10
89.163490
 20
154.962205
 30
0.0
 10
89.432098
 20
155.096885
 30
0.0
 10
89.697207
 20
155.315048
 30
0.0
  0
SPLINE
  5
223
100
AcDbEntity
  8
Contenu
 62
7
100
AcDbSpline
 70
8
 71
3
 72
8
 73
4
 74
0
 40
0
 40
0
 40
0
 40
0
 40
1
 40
1
 40
1
 40
1
 10
89.697207
 20
155.315048
 30
0.0
 10
89.962312
 20
155.533209
 30
0.0
 10
90.342618
 20
155.750141
 30
0.0
 10
90.542329
 20
155.797123
 30
0.0
  0
SPLINE
  5
224
100
AcDbEntity
  8
Contenu
 62
7
100
AcDbSpline
 70
8
 71
3
 72
8
 73
4
 74
0
 40
0
 40
0
 40
0
 40
0
 40
1
 40
1
 40
1
 40
1
 10
90.542329
 20
155.797123
 30
0.0
 10
91.829441
 20
156.099894
 30
0.0
 10
93.780384
 20
154.921328
 30
0.0
 10
93.321719
 20
154.118093
 30
0.0
  0
SPLINE
  5
225
100
AcDbEntity
  8
Contenu
 62
7
100
AcDbSpline
 70
8
 71
3
 72
8
 73
4
 74
0
 40
0
 40
0
 40
0
 40
0
 40
1
 40
1
 40
1
 40
1
 10
93.321719
 20
154.118093
 30
0.0
 10
93.016168
 20
153.582988
 30
0.0
 10
92.173800
 20
153.807547
 30
0.0
 10
92.173800
 20
154.424103
 30
0.0
  0
SPLINE
  5
226
100
AcDbEntity
  8
Contenu
 62
7
100
AcDbSpline
 70
8
 71
3
 72
8
 73
4
 74
0
 40
0
 40
0
 40
0
 40
0
 40
1
 40
1
 40
1
 40
1
 10
92.173800
 20
154.424103
 30
0.0
 10
92.173800
 20
154.685193
 30
0.0
 10
91.634846
 20
154.912300
 30
0.0
 10
91.015246
 20
154.912300
 30
0.0
  0
SPLINE
  5
227
100
AcDbEntity
  8
Contenu
 62
7
100
AcDbSpline
 70
8
 71
3
 72
8
 73
4
 74
0
 40
0
 40
0
 40
0
 40
0
 40
1
 40
1
 40
1
 40
1
 10
91.015246
 20
154.912300
 30
0.0
 10
90.514491
 20
154.912300
 30
0.0
 10
89.818757
 20
154.338085
 30
0.0
 10
89.945229
 20
154.029173
 30
0.0
  0
SPLINE
  5
228
100
AcDbEntity
  8
Contenu
 62
7
100
AcDbSpline
 70
8
 71
3
 72
8
 73
4
 74
0
 40
0
 40
0
 40
0
 40
0
 40
1
 40
1
 40
1
 40
1
 10
89.945229
 20
154.029173
 30
0.0
 10
89.992086
 20
153.914723
 30
0.0
 10
89.966763
 20
153.862763
 30
0.0
 10
89.886668
 20
153.909149
 30
0.0
  0
SPLINE
  5
229
100
AcDbEntity
  8
Contenu
 62
7
100
AcDbSpline
 70
8
 71
3
 72
8
 73
4
 74
0
 40
0
 40
0
 40
0
 40
0
 40
1
 40
1
 40
1
 40
1
 10
89.886668
 20
153.909149
 30
0.0
 10
89.642639
 20
154.050498
 30
0.0
 10
89.735671
 20
152.870298
 30
0.0
 10
90.013781
 20
152.296464
 30
0.0
  0
SPLINE
  5
22a
100
AcDbEntity
  8
Contenu
 62
7
100
AcDbSpline
 70
8
 71
3
 72
8
 73
4
 74
0
 40
0
 40
0
 40
0
 40
0
 40
1
 40
1
 40
1
 40
1
 10
90.013781
 20
152.296464
 30
0.0
 10
90.331162
 20
151.641612
 30
0.0
 10
91.439926
 20
150.689860
 30
0.0
 10
92.316635
 20
150.319729
 30
0.0
  0
SPLINE
  5
22b
100
AcDbEntity
  8
Contenu
 62
7
100
AcDbSpline
 70
8
 71
3
 72
8
 73
4
 74
0
 40
0
 40
0
 40
0
 40
0
 40
1
 40
1
 40
1
 40
1
 10
92.316635
 20
150.319729
 30
0.0
 10
93.918449
 20
149.643468
 30
0.0
 10
96.100278
 20
150.231932
 30
0.0
 10
98.744591
 20
152.053414
 30
0.0
  0
SPLINE
  5
22c
100
AcDbEntity
  8
Contenu
 62
7
100
AcDbSpline
 70
8
 71
3
 72
8
 73
4
 74
0
 40
0
 40
0
 40
0
 40
0
 40
1
 40
1
 40
1
 40
1
 10
98.744591
 20
152.053414
 30
0.0
 10
100.218304
 20
153.068565
 30
0.0
 10
102.329930
 20
154.375547
 30
0.0
 10
103.029881
 20
154.705784
 30
0.0
  0
SPLINE
  5
22d
100
AcDbEntity
  8
Contenu
 62
7
100
AcDbSpline
 70
8
 71
3
 72
8
 73
4
 74
0
 40
0
 40
0
 40
0
 40
0
 40
1
 40
1
 40
1
 40
1
 10
103.029881
 20
154.705784
 30
0.0
 10
105.916399
 20
156.067630
 30
0.0
 10
108.363949
 20
155.926770
 30
0.0
 10
110.301842
 20
154.287279
 30
0.0
  0
SPLINE
  5
22e
100
AcDbEntity
  8
Contenu
 62
7
100
AcDbSpline
 70
8
 71
3
 72
8
 73
4
 74
0
 40
0
 40
0
 40
0
 40
0
 40
1
 40
1
 40
1
 40
1
 10
110.301842
 20
154.287279
 30
0.0
 10
111.247882
 20
153.486914
 30
0.0
 10
111.852328
 20
152.506068
 30
0.0
 10
112.396314
 20
150.888550
 30
0.0
  0
SPLINE
  5
22f
100
AcDbEntity
  8
Contenu
 62
7
100
AcDbSpline
 70
8
 71
3
 72
8
 73
4
 74
0
 40
0
 40
0
 40
0
 40
0
 40
1
 40
1
 40
1
 40
1
 10
112.396314
 20
150.888550
 30
0.0
 10
112.605447
 20
150.266713
 30
0.0
 10
112.924761
 20
149.483010
 30
0.0
 10
113.105900
 20
149.146982
 30
0.0
  0
SPLINE
  5
230
100
AcDbEntity
  8
Contenu
 62
7
100
AcDbSpline
 70
8
 71
3
 72
8
 73
4
 74
0
 40
0
 40
0
 40
0
 40
0
 40
1
 40
1
 40
1
 40
1
 10
113.105900
 20
149.146982
 30
0.0
 10
113.705055
 20
148.035558
 30
0.0
 10
115.110084
 20
147.091039
 30
0.0
 10
116.462231
 20
146.890706
 30
0.0
  0
LINE
  5
231
100
AcDbEntity
  8
Contenu
 62
7
100
AcDbLine
 10
116.462231
 20
146.890706
 30
0.0
 11
117.149098
 21
146.788940
 31
0.0
  0
LINE
  5
232
100
AcDbEntity
  8
Contenu
 62
7
100
AcDbLine
 10
117.149098
 20
146.788940
 30
0.0
 11
117.305827
 21
147.372327
 31
0.0
  0
SPLINE
  5
233
100
AcDbEntity
  8
Contenu
 62
7
100
AcDbSpline
 70
8
 71
3
 72
8
 73
4
 74
0
 40
0
 40
0
 40
0
 40
0
 40
1
 40
1
 40
1
 40
1
 10
117.305827
 20
147.372327
 30
0.0
 10
117.518066
 20
148.162323
 30
0.0
 10
118.349236
 20
148.930676
 30
0.0
 10
119.211769
 20
149.134237
 30
0.0
  0
SPLINE
  5
234
100
AcDbEntity
  8
Contenu
 62
7
100
AcDbSpline
 70
8
 71
3
 72
8
 73
4
 74
0
 40
0
 40
0
 40
0
 40
0
 40
1
 40
1
 40
1
 40
1
 10
119.211769
 20
149.134237
 30
0.0
 10
120.570094
 20
149.454805
 30
0.0
 10
120.816558
 20
149.290467
 30
0.0
 10
120.597932
 20
148.209971
 30
0.0
  0
SPLINE
  5
235
100
AcDbEntity
  8
Contenu
 62
7
100
AcDbSpline
 70
8
 71
3
 72
8
 73
4
 74
0
 40
0
 40
0
 40
0
 40
0
 40
1
 40
1
 40
1
 40
1
 10
120.597932
 20
148.209971
 30
0.0
 10
120.361955
 20
147.043781
 30
0.0
 10
119.641687
 20
146.298646
 30
0.0
 10
118.538294
 20
146.079238
 30
0.0
  0
SPLINE
  5
236
100
AcDbEntity
  8
Contenu
 62
7
100
AcDbSpline
 70
8
 71
3
 72
8
 73
4
 74
0
 40
0
 40
0
 40
0
 40
0
 40
1
 40
1
 40
1
 40
1
 10
118.538294
 20
146.079238
 30
0.0
 10
118.123306
 20
145.996716
 30
0.0
 10
118.101984
 20
145.961464
 30
0.0
 10
118.139599
 20
145.419818
 30
0.0
  0
SPLINE
  5
237
100
AcDbEntity
  8
Contenu
 62
7
100
AcDbSpline
 70
8
 71
3
 72
8
 73
4
 74
0
 40
0
 40
0
 40
0
 40
0
 40
1
 40
1
 40
1
 40
1
 10
118.139599
 20
145.419818
 30
0.0
 10
118.217495
 20
144.297784
 30
0.0
 10
119.375368
 20
142.710814
 30
0.0
 10
120.513031
 20
142.166845
 30
0.0
  0
SPLINE
  5
238
100
AcDbEntity
  8
Contenu
 62
7
100
AcDbSpline
 70
8
 71
3
 72
8
 73
4
 74
0
 40
0
 40
0
 40
0
 40
0
 40
1
 40
1
 40
1
 40
1
 10
120.513031
 20
142.166845
 30
0.0
 10
120.829668
 20
142.015450
 30
0.0
 10
121.751315
 20
141.690299
 30
0.0
 10
122.561135
 20
141.444289
 30
0.0
  0
SPLINE
  5
239
100
AcDbEntity
  8
Contenu
 62
7
100
AcDbSpline
 70
8
 71
3
 72
8
 73
4
 74
0
 40
0
 40
0
 40
0
 40
0
 40
1
 40
1
 40
1
 40
1
 10
122.561135
 20
141.444289
 30
0.0
 10
124.369581
 20
140.894918
 30
0.0
 10
125.081580
 20
140.513257
 30
0.0
 10
125.976789
 20
139.613344
 30
0.0
  0
SPLINE
  5
23a
100
AcDbEntity
  8
Contenu
 62
7
100
AcDbSpline
 70
8
 71
3
 72
8
 73
4
 74
0
 40
0
 40
0
 40
0
 40
0
 40
1
 40
1
 40
1
 40
1
 10
125.976789
 20
139.613344
 30
0.0
 10
126.358316
 20
139.229826
 30
0.0
 10
126.723461
 20
138.932065
 30
0.0
 10
126.788211
 20
138.951660
 30
0.0
  0
SPLINE
  5
23b
100
AcDbEntity
  8
Contenu
 62
7
100
AcDbSpline
 70
8
 71
3
 72
8
 73
4
 74
0
 40
0
 40
0
 40
0
 40
0
 40
1
 40
1
 40
1
 40
1
 10
126.788211
 20
138.951660
 30
0.0
 10
126.852970
 20
138.971246
 30
0.0
 10
126.863519
 20
138.922898
 30
0.0
 10
126.811636
 20
138.844212
 30
0.0
  0
SPLINE
  5
23c
100
AcDbEntity
  8
Contenu
 62
7
100
AcDbSpline
 70
8
 71
3
 72
8
 73
4
 74
0
 40
0
 40
0
 40
0
 40
0
 40
1
 40
1
 40
1
 40
1
 10
126.811636
 20
138.844212
 30
0.0
 10
126.759746
 20
138.765531
 30
0.0
 10
126.780103
 20
138.628487
 30
0.0
 10
126.856884
 20
138.539672
 30
0.0
  0
SPLINE
  5
23d
100
AcDbEntity
  8
Contenu
 62
7
100
AcDbSpline
 70
8
 71
3
 72
8
 73
4
 74
0
 40
0
 40
0
 40
0
 40
0
 40
1
 40
1
 40
1
 40
1
 10
126.856884
 20
138.539672
 30
0.0
 10
127.170972
 20
138.176333
 30
0.0
 10
127.481211
 20
136.990520
 30
0.0
 10
127.470543
 20
136.194137
 30
0.0
  0
SPLINE
  5
23e
100
AcDbEntity
  8
Contenu
 62
7
100
AcDbSpline
 70
8
 71
3
 72
8
 73
4
 74
0
 40
0
 40
0
 40
0
 40
0
 40
1
 40
1
 40
1
 40
1
 10
127.470543
 20
136.194137
 30
0.0
 10
127.444607
 20
134.259724
 30
0.0
 10
126.583468
 20
132.436066
 30
0.0
 10
124.392331
 20
129.675503
 30
0.0
  0
SPLINE
  5
23f
100
AcDbEntity
  8
Contenu
 62
7
100
AcDbSpline
 70
8
 71
3
 72
8
 73
4
 74
0
 40
0
 40
0
 40
0
 40
0
 40
1
 40
1
 40
1
 40
1
 10
124.392331
 20
129.675503
 30
0.0
 10
122.214871
 20
126.932165
 30
0.0
 10
121.318810
 20
125.072586
 30
0.0
 10
121.526367
 20
123.727904
 30
0.0
  0
SPLINE
  5
240
100
AcDbEntity
  8
Contenu
 62
7
100
AcDbSpline
 70
8
 71
3
 72
8
 73
4
 74
0
 40
0
 40
0
 40
0
 40
0
 40
1
 40
1
 40
1
 40
1
 10
121.526367
 20
123.727904
 30
0.0
 10
121.801014
 20
121.948640
 30
0.0
 10
123.529552
 20
120.237518
 30
0.0
 10
125.052305
 20
120.237518
 30
0.0
  0
SPLINE
  5
241
100
AcDbEntity
  8
Contenu
 62
7
100
AcDbSpline
 70
8
 71
3
 72
8
 73
4
 74
0
 40
0
 40
0
 40
0
 40
0
 40
1
 40
1
 40
1
 40
1
 10
125.052305
 20
120.237518
 30
0.0
 10
125.590483
 20
120.237518
 30
0.0
 10
126.353789
 20
120.603405
 30
0.0
 10
126.224532
 20
120.799425
 30
0.0
  0
SPLINE
  5
242
100
AcDbEntity
  8
Contenu
 62
7
100
AcDbSpline
 70
8
 71
3
 72
8
 73
4
 74
0
 40
0
 40
0
 40
0
 40
0
 40
1
 40
1
 40
1
 40
1
 10
126.224532
 20
120.799425
 30
0.0
 10
126.166648
 20
120.887205
 30
0.0
 10
126.191100
 20
120.910793
 30
0.0
 10
126.284126
 20
120.856911
 30
0.0
  0
SPLINE
  5
243
100
AcDbEntity
  8
Contenu
 62
7
100
AcDbSpline
 70
8
 71
3
 72
8
 73
4
 74
0
 40
0
 40
0
 40
0
 40
0
 40
1
 40
1
 40
1
 40
1
 10
126.284126
 20
120.856911
 30
0.0
 10
126.479937
 20
120.743480
 30
0.0
 10
126.745452
 20
121.185122
 30
0.0
 10
126.731448
 20
121.600982
 30
0.0
  0
SPLINE
  5
244
100
AcDbEntity
  8
Contenu
 62
7
100
AcDbSpline
 70
8
 71
3
 72
8
 73
4
 74
0
 40
0
 40
0
 40
0
 40
0
 40
1
 40
1
 40
1
 40
1
 10
126.731448
 20
121.600982
 30
0.0
 10
126.725662
 20
121.771497
 30
0.0
 10
126.597900
 20
122.091749
 30
0.0
 10
126.447442
 20
122.312647
 30
0.0
  0
SPLINE
  5
245
100
AcDbEntity
  8
Contenu
 62
7
100
AcDbSpline
 70
8
 71
3
 72
8
 73
4
 74
0
 40
0
 40
0
 40
0
 40
0
 40
1
 40
1
 40
1
 40
1
 10
126.447442
 20
122.312647
 30
0.0
 10
125.812905
 20
123.244235
 30
0.0
 10
125.852069
 20
123.584502
 30
0.0
 10
126.593825
 20
123.584502
 30
0.0
  0
SPLINE
  5
246
100
AcDbEntity
  8
Contenu
 62
7
100
AcDbSpline
 70
8
 71
3
 72
8
 73
4
 74
0
 40
0
 40
0
 40
0
 40
0
 40
1
 40
1
 40
1
 40
1
 10
126.593825
 20
123.584502
 30
0.0
 10
126.940668
 20
123.584502
 30
0.0
 10
127.024722
 20
123.485402
 30
0.0
 10
127.380565
 20
122.656908
 30
0.0
  0
SPLINE
  5
247
100
AcDbEntity
  8
Contenu
 62
7
100
AcDbSpline
 70
8
 71
3
 72
8
 73
4
 74
0
 40
0
 40
0
 40
0
 40
0
 40
1
 40
1
 40
1
 40
1
 10
127.380565
 20
122.656908
 30
0.0
 10
127.615557
 20
122.109811
 30
0.0
 10
127.750191
 20
121.588104
 30
0.0
 10
127.708778
 20
121.385053
 30
0.0
  0
SPLINE
  5
248
100
AcDbEntity
  8
Contenu
 62
7
100
AcDbSpline
 70
8
 71
3
 72
8
 73
4
 74
0
 40
0
 40
0
 40
0
 40
0
 40
1
 40
1
 40
1
 40
1
 10
127.708778
 20
121.385053
 30
0.0
 10
127.657253
 20
121.132456
 30
0.0
 10
127.699831
 20
121.038533
 30
0.0
 10
127.868733
 20
121.032310
 30
0.0
  0
SPLINE
  5
249
100
AcDbEntity
  8
Contenu
 62
7
100
AcDbSpline
 70
8
 71
3
 72
8
 73
4
 74
0
 40
0
 40
0
 40
0
 40
0
 40
1
 40
1
 40
1
 40
1
 10
127.868733
 20
121.032310
 30
0.0
 10
128.021548
 20
121.026665
 30
0.0
 10
127.990879
 20
120.983129
 30
0.0
 10
127.777490
 20
120.902741
 30
0.0
  0
SPLINE
  5
24a
100
AcDbEntity
  8
Contenu
 62
7
100
AcDbSpline
 70
8
 71
3
 72
8
 73
4
 74
0
 40
0
 40
0
 40
0
 40
0
 40
1
 40
1
 40
1
 40
1
 10
127.777490
 20
120.902741
 30
0.0
 10
127.600723
 20
120.836145
 30
0.0
 10
127.456096
 20
120.693739
 30
0.0
 10
127.456096
 20
120.586277
 30
0.0
  0
SPLINE
  5
24b
100
AcDbEntity
  8
Contenu
 62
7
100
AcDbSpline
 70
8
 71
3
 72
8
 73
4
 74
0
 40
0
 40
0
 40
0
 40
0
 40
1
 40
1
 40
1
 40
1
 10
127.456096
 20
120.586277
 30
0.0
 10
127.456096
 20
120.221415
 30
0.0
 10
126.458943
 20
119.602117
 30
0.0
 10
125.575810
 20
119.418484
 30
0.0
  0
LINE
  5
24c
100
AcDbEntity
  8
Contenu
 62
7
100
AcDbLine
 10
125.575810
 20
119.418484
 30
0.0
 11
124.725299
 21
119.241641
 31
0.0
  0
LINE
  5
24d
100
AcDbEntity
  8
Contenu
 62
7
100
AcDbLine
 10
124.725299
 20
119.241641
 30
0.0
 11
124.818831
 21
117.764856
 31
0.0
  0
SPLINE
  5
24e
100
AcDbEntity
  8
Contenu
 62
7
100
AcDbSpline
 70
8
 71
3
 72
8
 73
4
 74
0
 40
0
 40
0
 40
0
 40
0
 40
1
 40
1
 40
1
 40
1
 10
124.818831
 20
117.764856
 30
0.0
 10
125.239432
 20
111.124526
 30
0.0
 10
125.230892
 20
47.784475
 30
0.0
 10
124.808699
 20
42.788261
 30
0.0
  0
LINE
  5
24f
100
AcDbEntity
  8
Contenu
 62
7
100
AcDbLine
 10
124.808699
 20
42.788261
 30
0.0
 11
124.729507
 21
41.851106
 31
0.0
  0
LINE
  5
250
100
AcDbEntity
  8
Contenu
 62
7
100
AcDbLine
 10
124.729507
 20
41.851106
 30
0.0
 11
125.253882
 21
41.816381
 31
0.0
  0
SPLINE
  5
251
100
AcDbEntity
  8
Contenu
 62
7
100
AcDbSpline
 70
8
 71
3
 72
8
 73
4
 74
0
 40
0
 40
0
 40
0
 40
0
 40
1
 40
1
 40
1
 40
1
 10
125.253882
 20
41.816381
 30
0.0
 10
126.723156
 20
41.719065
 30
0.0
 10
127.875834
 20
40.615537
 30
0.0
 10
127.683812
 20
39.490029
 30
0.0
  0
SPLINE
  5
252
100
AcDbEntity
  8
Contenu
 62
7
100
AcDbSpline
 70
8
 71
3
 72
8
 73
4
 74
0
 40
0
 40
0
 40
0
 40
0
 40
1
 40
1
 40
1
 40
1
 10
127.683812
 20
39.490029
 30
0.0
 10
127.632967
 20
39.191969
 30
0.0
 10
127.464500
 20
38.715047
 30
0.0
 10
127.309459
 20
38.430211
 30
0.0
  0
SPLINE
  5
253
100
AcDbEntity
  8
Contenu
 62
7
100
AcDbSpline
 70
8
 71
3
 72
8
 73
4
 74
0
 40
0
 40
0
 40
0
 40
0
 40
1
 40
1
 40
1
 40
1
 10
127.309459
 20
38.430211
 30
0.0
 10
127.154412
 20
38.145370
 30
0.0
 10
127.027547
 20
37.832947
 30
0.0
 10
127.027547
 20
37.735905
 30
0.0
  0
SPLINE
  5
254
100
AcDbEntity
  8
Contenu
 62
7
100
AcDbSpline
 70
8
 71
3
 72
8
 73
4
 74
0
 40
0
 40
0
 40
0
 40
0
 40
1
 40
1
 40
1
 40
1
 10
127.027547
 20
37.735905
 30
0.0
 10
127.027547
 20
37.638894
 30
0.0
 10
126.898989
 20
37.456347
 30
0.0
 10
126.741862
 20
37.330250
 30
0.0
  0
SPLINE
  5
255
100
AcDbEntity
  8
Contenu
 62
7
100
AcDbSpline
 70
8
 71
3
 72
8
 73
4
 74
0
 40
0
 40
0
 40
0
 40
0
 40
1
 40
1
 40
1
 40
1
 10
126.741862
 20
37.330250
 30
0.0
 10
126.584735
 20
37.204170
 30
0.0
 10
126.456177
 20
37.153613
 30
0.0
 10
126.456177
 20
37.217940
 30
0.0
  0
SPLINE
  5
256
100
AcDbEntity
  8
Contenu
 62
7
100
AcDbSpline
 70
8
 71
3
 72
8
 73
4
 74
0
 40
0
 40
0
 40
0
 40
0
 40
1
 40
1
 40
1
 40
1
 10
126.456177
 20
37.217940
 30
0.0
 10
126.456177
 20
37.282264
 30
0.0
 10
126.327616
 20
37.366414
 30
0.0
 10
126.170489
 20
37.404912
 30
0.0
  0
SPLINE
  5
257
100
AcDbEntity
  8
Contenu
 62
7
100
AcDbSpline
 70
8
 71
3
 72
8
 73
4
 74
0
 40
0
 40
0
 40
0
 40
0
 40
1
 40
1
 40
1
 40
1
 10
126.170489
 20
37.404912
 30
0.0
 10
125.833527
 20
37.487510
 30
0.0
 10
125.778948
 20
38.051085
 30
0.0
 10
126.080542
 20
38.333745
 30
0.0
  0
SPLINE
  5
258
100
AcDbEntity
  8
Contenu
 62
7
100
AcDbSpline
 70
8
 71
3
 72
8
 73
4
 74
0
 40
0
 40
0
 40
0
 40
0
 40
1
 40
1
 40
1
 40
1
 10
126.080542
 20
38.333745
 30
0.0
 10
126.392434
 20
38.626045
 30
0.0
 10
126.741862
 20
39.333478
 30
0.0
 10
126.741862
 20
39.672582
 30
0.0
  0
SPLINE
  5
259
100
AcDbEntity
  8
Contenu
 62
7
100
AcDbSpline
 70
8
 71
3
 72
8
 73
4
 74
0
 40
0
 40
0
 40
0
 40
0
 40
1
 40
1
 40
1
 40
1
 10
126.741862
 20
39.672582
 30
0.0
 10
126.741862
 20
40.332649
 30
0.0
 10
125.857064
 20
40.980891
 30
0.0
 10
124.956160
 20
40.980891
 30
0.0
  0
SPLINE
  5
25a
100
AcDbEntity
  8
Contenu
 62
7
100
AcDbSpline
 70
8
 71
3
 72
8
 73
4
 74
0
 40
0
 40
0
 40
0
 40
0
 40
1
 40
1
 40
1
 40
1
 10
124.956160
 20
40.980891
 30
0.0
 10
124.437218
 20
40.980891
 30
0.0
 10
123.321092
 20
40.415218
 30
0.0
 10
122.800400
 20
39.888324
 30
0.0
  0
SPLINE
  5
25b
100
AcDbEntity
  8
Contenu
 62
7
100
AcDbSpline
 70
8
 71
3
 72
8
 73
4
 74
0
 40
0
 40
0
 40
0
 40
0
 40
1
 40
1
 40
1
 40
1
 10
122.800400
 20
39.888324
 30
0.0
 10
121.725130
 20
38.800258
 30
0.0
 10
121.323088
 20
37.609958
 30
0.0
 10
121.603397
 20
36.344394
 30
0.0
  0
SPLINE
  5
25c
100
AcDbEntity
  8
Contenu
 62
7
100
AcDbSpline
 70
8
 71
3
 72
8
 73
4
 74
0
 40
0
 40
0
 40
0
 40
0
 40
1
 40
1
 40
1
 40
1
 10
121.603397
 20
36.344394
 30
0.0
 10
121.908518
 20
34.966952
 30
0.0
 10
122.121774
 20
34.614059
 30
0.0
 10
125.112514
 20
30.538290
 30
0.0
  0
SPLINE
  5
25d
100
AcDbEntity
  8
Contenu
 62
7
100
AcDbSpline
 70
8
 71
3
 72
8
 73
4
 74
0
 40
0
 40
0
 40
0
 40
0
 40
1
 40
1
 40
1
 40
1
 10
125.112514
 20
30.538290
 30
0.0
 10
126.194701
 20
29.063453
 30
0.0
 10
127.066519
 20
27.429669
 30
0.0
 10
127.316181
 20
26.408561
 30
0.0
  0
SPLINE
  5
25e
100
AcDbEntity
  8
Contenu
 62
7
100
AcDbSpline
 70
8
 71
3
 72
8
 73
4
 74
0
 40
0
 40
0
 40
0
 40
0
 40
1
 40
1
 40
1
 40
1
 10
127.316181
 20
26.408561
 30
0.0
 10
127.587050
 20
25.300726
 30
0.0
 10
127.438138
 20
23.789905
 30
0.0
 10
126.970250
 20
22.899156
 30
0.0
  0
SPLINE
  5
25f
100
AcDbEntity
  8
Contenu
 62
7
100
AcDbSpline
 70
8
 71
3
 72
8
 73
4
 74
0
 40
0
 40
0
 40
0
 40
0
 40
1
 40
1
 40
1
 40
1
 10
126.970250
 20
22.899156
 30
0.0
 10
126.755228
 20
22.489792
 30
0.0
 10
126.394379
 20
21.969431
 30
0.0
 10
126.168378
 20
21.742778
 30
0.0
  0
SPLINE
  5
260
100
AcDbEntity
  8
Contenu
 62
7
100
AcDbSpline
 70
8
 71
3
 72
8
 73
4
 74
0
 40
0
 40
0
 40
0
 40
0
 40
1
 40
1
 40
1
 40
1
 10
126.168378
 20
21.742778
 30
0.0
 10
125.942386
 20
21.516097
 30
0.0
 10
125.802195
 20
21.278748
 30
0.0
 10
125.856855
 20
21.215248
 30
0.0
  0
SPLINE
  5
261
100
AcDbEntity
  8
Contenu
 62
7
100
AcDbSpline
 70
8
 71
3
 72
8
 73
4
 74
0
 40
0
 40
0
 40
0
 40
0
 40
1
 40
1
 40
1
 40
1
 10
125.856855
 20
21.215248
 30
0.0
 10
125.911511
 20
21.151777
 30
0.0
 10
125.902180
 20
21.140403
 30
0.0
 10
125.836112
 20
21.190131
 30
0.0
  0
SPLINE
  5
262
100
AcDbEntity
  8
Contenu
 62
7
100
AcDbSpline
 70
8
 71
3
 72
8
 73
4
 74
0
 40
0
 40
0
 40
0
 40
0
 40
1
 40
1
 40
1
 40
1
 10
125.836112
 20
21.190131
 30
0.0
 10
125.770044
 20
21.239774
 30
0.0
 10
125.438368
 20
21.081729
 30
0.0
 10
125.099021
 20
20.838990
 30
0.0
  0
SPLINE
  5
263
100
AcDbEntity
  8
Contenu
 62
7
100
AcDbSpline
 70
8
 71
3
 72
8
 73
4
 74
0
 40
0
 40
0
 40
0
 40
0
 40
1
 40
1
 40
1
 40
1
 10
125.099021
 20
20.838990
 30
0.0
 10
124.578583
 20
20.466626
 30
0.0
 10
122.299783
 20
19.560269
 30
0.0
 10
121.884109
 20
19.560269
 30
0.0
  0
SPLINE
  5
264
100
AcDbEntity
  8
Contenu
 62
7
100
AcDbSpline
 70
8
 71
3
 72
8
 73
4
 74
0
 40
0
 40
0
 40
0
 40
0
 40
1
 40
1
 40
1
 40
1
 10
121.884109
 20
19.560269
 30
0.0
 10
121.543758
 20
19.560269
 30
0.0
 10
119.874825
 20
18.692097
 30
0.0
 10
119.487927
 20
18.313778
 30
0.0
  0
SPLINE
  5
265
100
AcDbEntity
  8
Contenu
 62
7
100
AcDbSpline
 70
8
 71
3
 72
8
 73
4
 74
0
 40
0
 40
0
 40
0
 40
0
 40
1
 40
1
 40
1
 40
1
 10
119.487927
 20
18.313778
 30
0.0
 10
118.869874
 20
17.709399
 30
0.0
 10
118.214788
 20
16.521724
 30
0.0
 10
118.099893
 20
15.797259
 30
0.0
  0
LINE
  5
266
100
AcDbEntity
  8
Contenu
 62
7
100
AcDbLine
 10
118.099893
 20
15.797259
 30
0.0
 11
118.002075
 21
15.180406
 31
0.0
  0
LINE
  5
267
100
AcDbEntity
  8
Contenu
 62
7
100
AcDbLine
 10
118.002075
 20
15.180406
 30
0.0
 11
118.617429
 21
15.088204
 31
0.0
  0
SPLINE
  5
268
100
AcDbEntity
  8
Contenu
 62
7
100
AcDbSpline
 70
8
 71
3
 72
8
 73
4
 74
0
 40
0
 40
0
 40
0
 40
0
 40
1
 40
1
 40
1
 40
1
 10
118.617429
 20
15.088204
 30
0.0
 10
119.360069
 20
14.976924
 30
0.0
 10
120.369580
 20
14.078498
 30
0.0
 10
120.532304
 20
13.384090
 30
0.0
  0
SPLINE
  5
269
100
AcDbEntity
  8
Contenu
 62
7
100
AcDbSpline
 70
8
 71
3
 72
8
 73
4
 74
0
 40
0
 40
0
 40
0
 40
0
 40
1
 40
1
 40
1
 40
1
 10
120.532304
 20
13.384090
 30
0.0
 10
120.589282
 20
13.140955
 30
0.0
 10
120.707612
 20
12.834406
 30
0.0
 10
120.795256
 20
12.702862
 30
0.0
  0
SPLINE
  5
26a
100
AcDbEntity
  8
Contenu
 62
7
100
AcDbSpline
 70
8
 71
3
 72
8
 73
4
 74
0
 40
0
 40
0
 40
0
 40
0
 40
1
 40
1
 40
1
 40
1
 10
120.795256
 20
12.702862
 30
0.0
 10
121.017557
 20
12.369247
 30
0.0
 10
120.750453
 20
12.008059
 30
0.0
 10
120.239671
 20
11.951530
 30
0.0
  0
SPLINE
  5
26b
100
AcDbEntity
  8
Contenu
 62
7
100
AcDbSpline
 70
8
 71
3
 72
8
 73
4
 74
0
 40
0
 40
0
 40
0
 40
0
 40
1
 40
1
 40
1
 40
1
 10
120.239671
 20
11.951530
 30
0.0
 10
119.055407
 20
11.820466
 30
0.0
 10
117.624777
 20
12.719598
 30
0.0
 10
117.318496
 20
13.787470
 30
0.0
  0
LINE
  5
26c
100
AcDbEntity
  8
Contenu
 62
7
100
AcDbLine
 10
117.318496
 20
13.787470
 30
0.0
 11
117.150280
 21
14.373900
 31
0.0
  0
LINE
  5
26d
100
AcDbEntity
  8
Contenu
 62
7
100
AcDbLine
 10
117.150280
 20
14.373900
 30
0.0
 11
116.456361
 21
14.296853
 31
0.0
  0
SPLINE
  5
26e
100
AcDbEntity
  8
Contenu
 62
7
100
AcDbSpline
 70
8
 71
3
 72
8
 73
4
 74
0
 40
0
 40
0
 40
0
 40
0
 40
1
 40
1
 40
1
 40
1
 10
116.456361
 20
14.296853
 30
0.0
 10
115.220645
 20
14.159721
 30
0.0
 10
114.017249
 20
13.414626
 30
0.0
 10
113.286012
 20
12.333913
 30
0.0
  0
SPLINE
  5
26f
100
AcDbEntity
  8
Contenu
 62
7
100
AcDbSpline
 70
8
 71
3
 72
8
 73
4
 74
0
 40
0
 40
0
 40
0
 40
0
 40
1
 40
1
 40
1
 40
1
 10
113.286012
 20
12.333913
 30
0.0
 10
113.061016
 20
12.001427
 30
0.0
 10
112.681291
 20
11.156792
 30
0.0
 10
112.442176
 20
10.456994
 30
0.0
  0
SPLINE
  5
270
100
AcDbEntity
  8
Contenu
 62
7
100
AcDbSpline
 70
8
 71
3
 72
8
 73
4
 74
0
 40
0
 40
0
 40
0
 40
0
 40
1
 40
1
 40
1
 40
1
 10
112.442176
 20
10.456994
 30
0.0
 10
111.623683
 20
8.061604
 30
0.0
 10
110.610387
 20
6.778001
 30
0.0
 10
108.952216
 20
6.036039
 30
0.0
  0
SPLINE
  5
271
100
AcDbEntity
  8
Contenu
 62
7
100
AcDbSpline
 70
8
 71
3
 72
8
 73
4
 74
0
 40
0
 40
0
 40
0
 40
0
 40
1
 40
1
 40
1
 40
1
 10
108.952216
 20
6.036039
 30
0.0
 10
107.710506
 20
5.480400
 30
0.0
 10
106.531525
 20
5.394322
 30
0.0
 10
105.123405
 20
5.756385
 30
0.0
  0
SPLINE
  5
272
100
AcDbEntity
  8
Contenu
 62
7
100
AcDbSpline
 70
8
 71
3
 72
8
 73
4
 74
0
 40
0
 40
0
 40
0
 40
0
 40
1
 40
1
 40
1
 40
1
 10
105.123405
 20
5.756385
 30
0.0
 10
103.701395
 20
6.122032
 30
0.0
 10
102.729241
 20
6.587417
 30
0.0
 10
100.723409
 20
7.862638
 30
0.0
  0
SPLINE
  5
273
100
AcDbEntity
  8
Contenu
 62
7
100
AcDbSpline
 70
8
 71
3
 72
8
 73
4
 74
0
 40
0
 40
0
 40
0
 40
0
 40
1
 40
1
 40
1
 40
1
 10
100.723409
 20
7.862638
 30
0.0
 10
99.831440
 20
8.429707
 30
0.0
 10
98.551965
 20
9.243523
 30
0.0
 10
97.880141
 20
9.671090
 30
0.0
  0
SPLINE
  5
274
100
AcDbEntity
  8
Contenu
 62
7
100
AcDbSpline
 70
8
 71
3
 72
8
 73
4
 74
0
 40
0
 40
0
 40
0
 40
0
 40
1
 40
1
 40
1
 40
1
 10
97.880141
 20
9.671090
 30
0.0
 10
95.052201
 20
11.470764
 30
0.0
 10
92.912731
 20
11.600191
 30
0.0
 10
91.036145
 20
10.085222
 30
0.0
  0
SPLINE
  5
275
100
AcDbEntity
  8
Contenu
 62
7
100
AcDbSpline
 70
8
 71
3
 72
8
 73
4
 74
0
 40
0
 40
0
 40
0
 40
0
 40
1
 40
1
 40
1
 40
1
 10
91.036145
 20
10.085222
 30
0.0
 10
89.801680
 20
9.088611
 30
0.0
 10
89.406808
 20
7.755196
 30
0.0
 10
90.071549
 20
6.828068
 30
0.0
  0
SPLINE
  5
276
100
AcDbEntity
  8
Contenu
 62
7
100
AcDbSpline
 70
8
 71
3
 72
8
 73
4
 74
0
 40
0
 40
0
 40
0
 40
0
 40
1
 40
1
 40
1
 40
1
 10
90.071549
 20
6.828068
 30
0.0
 10
90.352120
 20
6.436682
 30
0.0
 10
90.489131
 20
6.367509
 30
0.0
 10
91.052124
 20
6.333106
 30
0.0
  0
SPLINE
  5
277
100
AcDbEntity
  8
Contenu
 62
7
100
AcDbSpline
 70
8
 71
3
 72
8
 73
4
 74
0
 40
0
 40
0
 40
0
 40
0
 40
1
 40
1
 40
1
 40
1
 10
91.052124
 20
6.333106
 30
0.0
 10
91.582877
 20
6.300594
 30
0.0
 10
91.788363
 20
6.357660
 30
0.0
 10
92.139326
 20
6.634350
 30
0.0
  0
SPLINE
  5
278
100
AcDbEntity
  8
Contenu
 62
7
100
AcDbSpline
 70
8
 71
3
 72
8
 73
4
 74
0
 40
0
 40
0
 40
0
 40
0
 40
1
 40
1
 40
1
 40
1
 10
92.139326
 20
6.634350
 30
0.0
 10
92.642732
 20
7.031296
 30
0.0
 10
93.108342
 20
7.074419
 30
0.0
 10
93.294586
 20
6.741341
 30
0.0
  0
SPLINE
  5
279
100
AcDbEntity
  8
Contenu
 62
7
100
AcDbSpline
 70
8
 71
3
 72
8
 73
4
 74
0
 40
0
 40
0
 40
0
 40
0
 40
1
 40
1
 40
1
 40
1
 10
93.294586
 20
6.741341
 30
0.0
 10
93.454454
 20
6.455337
 30
0.0
 10
93.256706
 20
5.904552
 30
0.0
 10
92.994189
 20
5.904552
 30
0.0
  0
SPLINE
  5
27a
100
AcDbEntity
  8
Contenu
 62
7
100
AcDbSpline
 70
8
 71
3
 72
8
 73
4
 74
0
 40
0
 40
0
 40
0
 40
0
 40
1
 40
1
 40
1
 40
1
 10
92.994189
 20
5.904552
 30
0.0
 10
92.890430
 20
5.904552
 30
0.0
 10
92.553363
 20
5.784071
 30
0.0
 10
92.245162
 20
5.636808
 30
0.0
  0
SPLINE
  5
27b
100
AcDbEntity
  8
Contenu
 62
7
100
AcDbSpline
 70
8
 71
3
 72
8
 73
4
 74
0
 40
0
 40
0
 40
0
 40
0
 40
1
 40
1
 40
1
 40
1
 10
92.245162
 20
5.636808
 30
0.0
 10
91.526754
 20
5.293512
 30
0.0
 10
90.662593
 20
5.294839
 30
0.0
 10
90.058217
 20
5.640194
 30
0.0
  0
SPLINE
  5
27c
100
AcDbEntity
  8
Contenu
 62
7
100
AcDbSpline
 70
8
 71
3
 72
8
 73
4
 74
0
 40
0
 40
0
 40
0
 40
0
 40
1
 40
1
 40
1
 40
1
 10
90.058217
 20
5.640194
 30
0.0
 10
89.798166
 20
5.788812
 30
0.0
 10
89.532228
 20
5.879603
 30
0.0
 10
89.467263
 20
5.841983
 30
0.0
  0
SPLINE
  5
27d
100
AcDbEntity
  8
Contenu
 62
7
100
AcDbSpline
 70
8
 71
3
 72
8
 73
4
 74
0
 40
0
 40
0
 40
0
 40
0
 40
1
 40
1
 40
1
 40
1
 10
89.467263
 20
5.841983
 30
0.0
 10
89.402298
 20
5.804306
 30
0.0
 10
89.357944
 20
5.878305
 30
0.0
 10
89.368714
 20
6.006378
 30
0.0
  0
SPLINE
  5
27e
100
AcDbEntity
  8
Contenu
 62
7
100
AcDbSpline
 70
8
 71
3
 72
8
 73
4
 74
0
 40
0
 40
0
 40
0
 40
0
 40
1
 40
1
 40
1
 40
1
 10
89.368714
 20
6.006378
 30
0.0
 10
89.379580
 20
6.135127
 30
0.0
 10
89.303752
 20
6.222757
 30
0.0
 10
89.199135
 20
6.202437
 30
0.0
  0
SPLINE
  5
27f
100
AcDbEntity
  8
Contenu
 62
7
100
AcDbSpline
 70
8
 71
3
 72
8
 73
4
 74
0
 40
0
 40
0
 40
0
 40
0
 40
1
 40
1
 40
1
 40
1
 10
89.199135
 20
6.202437
 30
0.0
 10
89.095080
 20
6.182117
 30
0.0
 10
89.046560
 20
6.221064
 30
0.0
 10
89.091301
 20
6.289023
 30
0.0
  0
SPLINE
  5
280
100
AcDbEntity
  8
Contenu
 62
7
100
AcDbSpline
 70
8
 71
3
 72
8
 73
4
 74
0
 40
0
 40
0
 40
0
 40
0
 40
1
 40
1
 40
1
 40
1
 10
89.091301
 20
6.289023
 30
0.0
 10
89.185978
 20
6.432561
 30
0.0
 10
88.834321
 20
7.281937
 30
0.0
 10
88.723272
 20
7.177826
 30
0.0
  0
SPLINE
  5
281
100
AcDbEntity
  8
Contenu
 62
7
100
AcDbSpline
 70
8
 71
3
 72
8
 73
4
 74
0
 40
0
 40
0
 40
0
 40
0
 40
1
 40
1
 40
1
 40
1
 10
88.723272
 20
7.177826
 30
0.0
 10
88.682248
 20
7.139415
 30
0.0
 10
87.497363
 20
7.077919
 30
0.0
 10
86.090206
 20
7.041315
 30
0.0
  0
SPLINE
  5
282
100
AcDbEntity
  8
Contenu
 62
7
100
AcDbSpline
 70
8
 71
3
 72
8
 73
4
 74
0
 40
0
 40
0
 40
0
 40
0
 40
1
 40
1
 40
1
 40
1
 10
86.090206
 20
7.041315
 30
0.0
 10
84.683038
 20
7.004682
 30
0.0
 10
82.804440
 20
6.942114
 30
0.0
 10
81.915552
 20
6.902179
 30
0.0
  0
SPLINE
  5
283
100
AcDbEntity
  8
Contenu
 62
7
100
AcDbSpline
 70
8
 71
3
 72
8
 73
4
 74
0
 40
0
 40
0
 40
0
 40
0
 40
1
 40
1
 40
1
 40
1
 10
81.915552
 20
6.902179
 30
0.0
 10
79.922265
 20
6.812828
 30
0.0
 10
51.365451
 20
6.815932
 30
0.0
 10
49.392153
 20
6.905848
 30
0.0
  0
SPLINE
  5
284
100
AcDbEntity
  8
Contenu
 62
7
100
AcDbSpline
 70
8
 71
3
 72
8
 73
4
 74
0
 40
0
 40
0
 40
0
 40
0
 40
1
 40
1
 40
1
 40
1
 10
49.392153
 20
6.905848
 30
0.0
 10
48.606517
 20
6.941606
 30
0.0
 10
46.886587
 20
7.004852
 30
0.0
 10
45.570086
 20
7.046423
 30
0.0
  0
LINE
  5
285
100
AcDbEntity
  8
Contenu
 62
7
100
AcDbLine
 10
45.570086
 20
7.046423
 30
0.0
 11
43.176469
 21
7.122002
 31
0.0
  0
LINE
  5
286
100
AcDbEntity
  8
Contenu
 62
7
100
AcDbLine
 10
43.176469
 20
7.122002
 30
0.0
 11
43.025542
 21
6.747606
 31
0.0
  0
SPLINE
  5
287
100
AcDbEntity
  8
Contenu
 62
7
100
AcDbSpline
 70
8
 71
3
 72
8
 73
4
 74
0
 40
0
 40
0
 40
0
 40
0
 40
1
 40
1
 40
1
 40
1
 10
43.025542
 20
6.747606
 30
0.0
 10
42.503436
 20
5.452404
 30
0.0
 10
40.854872
 20
5.000453
 30
0.0
 10
39.528394
 20
5.788897
 30
0.0
  0
LINE
  5
288
100
AcDbEntity
  8
Contenu
 62
7
100
AcDbLine
 10
39.528394
 20
5.788897
 30
0.0
 11
39.528143
 21
5.788897
 31
0.0
  0
SPLINE
  5
289
100
AcDbEntity
  8
Contenu
 62
7
100
AcDbSpline
 70
8
 71
3
 72
8
 73
4
 74
0
 40
0
 40
0
 40
0
 40
0
 40
1
 40
1
 40
1
 40
1
 10
27.144578
 20
6.772385
 30
0.0
 10
28.421476
 20
7.150422
 30
0.0
 10
29.786032
 20
7.894868
 30
0.0
 10
32.247328
 20
9.556084
 30
0.0
  0
SPLINE
  5
28a
100
AcDbEntity
  8
Contenu
 62
7
100
AcDbSpline
 70
8
 71
3
 72
8
 73
4
 74
0
 40
0
 40
0
 40
0
 40
0
 40
1
 40
1
 40
1
 40
1
 10
32.247328
 20
9.556084
 30
0.0
 10
35.073708
 20
11.463850
 30
0.0
 10
36.847333
 20
12.157608
 30
0.0
 10
38.590112
 20
12.037269
 30
0.0
  0
SPLINE
  5
28b
100
AcDbEntity
  8
Contenu
 62
7
100
AcDbSpline
 70
8
 71
3
 72
8
 73
4
 74
0
 40
0
 40
0
 40
0
 40
0
 40
1
 40
1
 40
1
 40
1
 10
38.590112
 20
12.037269
 30
0.0
 10
40.801758
 20
11.884558
 30
0.0
 10
43.138600
 20
9.869351
 30
0.0
 10
43.216090
 20
8.048001
 30
0.0
  0
LINE
  5
28c
100
AcDbEntity
  8
Contenu
 62
7
100
AcDbLine
 10
43.216090
 20
8.048001
 30
0.0
 11
43.240417
 21
7.475485
 31
0.0
  0
LINE
  5
28d
100
AcDbEntity
  8
Contenu
 62
7
100
AcDbLine
 10
43.240417
 20
7.475485
 30
0.0
 11
44.744868
 21
7.579146
 31
0.0
  0
SPLINE
  5
28e
100
AcDbEntity
  8
Contenu
 62
7
100
AcDbSpline
 70
8
 71
3
 72
8
 73
4
 74
0
 40
0
 40
0
 40
0
 40
0
 40
1
 40
1
 40
1
 40
1
 10
44.744868
 20
7.579146
 30
0.0
 10
48.752847
 20
7.855215
 30
0.0
 10
80.877237
 20
7.856655
 30
0.0
 10
86.616658
 20
7.581968
 30
0.0
  0
LINE
  5
28f
100
AcDbEntity
  8
Contenu
 62
7
100
AcDbLine
 10
86.616658
 20
7.581968
 30
0.0
 11
88.701961
 21
7.481835
 31
0.0
  0
LINE
  5
290
100
AcDbEntity
  8
Contenu
 62
7
100
AcDbLine
 10
88.701961
 20
7.481835
 30
0.0
 11
88.794050
 21
8.111586
 31
0.0
  0
SPLINE
  5
291
100
AcDbEntity
  8
Contenu
 62
7
100
AcDbSpline
 70
8
 71
3
 72
8
 73
4
 74
0
 40
0
 40
0
 40
0
 40
0
 40
1
 40
1
 40
1
 40
1
 10
88.794050
 20
8.111586
 30
0.0
 10
88.974227
 20
9.343684
 30
0.0
 10
89.604104
 20
10.230200
 30
0.0
 10
90.959304
 20
11.159106
 30
0.0
  0
SPLINE
  5
292
100
AcDbEntity
  8
Contenu
 62
7
100
AcDbSpline
 70
8
 71
3
 72
8
 73
4
 74
0
 40
0
 40
0
 40
0
 40
0
 40
1
 40
1
 40
1
 40
1
 10
90.959304
 20
11.159106
 30
0.0
 10
92.207917
 20
12.015002
 30
0.0
 10
93.709024
 20
12.259547
 30
0.0
 10
95.307457
 20
11.867540
 30
0.0
  0
SPLINE
  5
293
100
AcDbEntity
  8
Contenu
 62
7
100
AcDbSpline
 70
8
 71
3
 72
8
 73
4
 74
0
 40
0
 40
0
 40
0
 40
0
 40
1
 40
1
 40
1
 40
1
 10
95.307457
 20
11.867540
 30
0.0
 10
96.705400
 20
11.524697
 30
0.0
 10
97.426565
 20
11.134553
 30
0.0
 10
100.815484
 20
8.887584
 30
0.0
  0
SPLINE
  5
294
100
AcDbEntity
  8
Contenu
 62
7
100
AcDbSpline
 70
8
 71
3
 72
8
 73
4
 74
0
 40
0
 40
0
 40
0
 40
0
 40
1
 40
1
 40
1
 40
1
 10
100.815484
 20
8.887584
 30
0.0
 10
103.316715
 20
7.229275
 30
0.0
 10
105.192606
 20
6.440464
 30
0.0
 10
106.631858
 20
6.441875
 30
0.0
  0
SPLINE
  5
295
100
AcDbEntity
  8
Contenu
 62
7
100
AcDbSpline
 70
8
 71
3
 72
8
 73
4
 74
0
 40
0
 40
0
 40
0
 40
0
 40
1
 40
1
 40
1
 40
1
 10
106.631858
 20
6.441875
 30
0.0
 10
107.577884
 20
6.444697
 30
0.0
 10
108.499757
 20
6.670559
 30
0.0
 10
108.367776
 20
6.870683
 30
0.0
  0
SPLINE
  5
296
100
AcDbEntity
  8
Contenu
 62
7
100
AcDbSpline
 70
8
 71
3
 72
8
 73
4
 74
0
 40
0
 40
0
 40
0
 40
0
 40
1
 40
1
 40
1
 40
1
 10
108.367776
 20
6.870683
 30
0.0
 10
108.308746
 20
6.960232
 30
0.0
 10
108.336364
 20
6.979931
 30
0.0
 10
108.438139
 20
6.920975
 30
0.0
  0
SPLINE
  5
297
100
AcDbEntity
  8
Contenu
 62
7
100
AcDbSpline
 70
8
 71
3
 72
8
 73
4
 74
0
 40
0
 40
0
 40
0
 40
0
 40
1
 40
1
 40
1
 40
1
 10
108.438139
 20
6.920975
 30
0.0
 10
108.671498
 20
6.785819
 30
0.0
 10
109.438727
 20
7.258485
 30
0.0
 10
110.090438
 20
7.938866
 30
0.0
  0
SPLINE
  5
298
100
AcDbEntity
  8
Contenu
 62
7
100
AcDbSpline
 70
8
 71
3
 72
8
 73
4
 74
0
 40
0
 40
0
 40
0
 40
0
 40
1
 40
1
 40
1
 40
1
 10
110.090438
 20
7.938866
 30
0.0
 10
110.701790
 20
8.577140
 30
0.0
 10
111.003192
 20
9.166815
 30
0.0
 10
111.607286
 20
10.906489
 30
0.0
  0
SPLINE
  5
299
100
AcDbEntity
  8
Contenu
 62
7
100
AcDbSpline
 70
8
 71
3
 72
8
 73
4
 74
0
 40
0
 40
0
 40
0
 40
0
 40
1
 40
1
 40
1
 40
1
 10
111.607286
 20
10.906489
 30
0.0
 10
111.833676
 20
11.558394
 30
0.0
 10
112.180146
 20
12.349661
 30
0.0
 10
112.377228
 20
12.664903
 30
0.0
  0
SPLINE
  5
29a
100
AcDbEntity
  8
Contenu
 62
7
100
AcDbSpline
 70
8
 71
3
 72
8
 73
4
 74
0
 40
0
 40
0
 40
0
 40
0
 40
1
 40
1
 40
1
 40
1
 10
112.377228
 20
12.664903
 30
0.0
 10
113.135099
 20
13.876934
 30
0.0
 10
115.028914
 20
15.076689
 30
0.0
 10
116.429753
 20
15.232194
 30
0.0
  0
LINE
  5
29b
100
AcDbEntity
  8
Contenu
 62
7
100
AcDbLine
 10
116.429753
 20
15.232194
 30
0.0
 11
117.138150
 21
15.310821
 31
0.0
  0
LINE
  5
29c
100
AcDbEntity
  8
Contenu
 62
7
100
AcDbLine
 10
117.138150
 20
15.310821
 30
0.0
 11
117.202265
 21
15.936225
 31
0.0
  0
SPLINE
  5
29d
100
AcDbEntity
  8
Contenu
 62
7
100
AcDbSpline
 70
8
 71
3
 72
8
 73
4
 74
0
 40
0
 40
0
 40
0
 40
0
 40
1
 40
1
 40
1
 40
1
 10
117.202265
 20
15.936225
 30
0.0
 10
117.294323
 20
16.834115
 30
0.0
 10
117.867841
 20
17.905572
 30
0.0
 10
118.727476
 20
18.785597
 30
0.0
  0
SPLINE
  5
29e
100
AcDbEntity
  8
Contenu
 62
7
100
AcDbSpline
 70
8
 71
3
 72
8
 73
4
 74
0
 40
0
 40
0
 40
0
 40
0
 40
1
 40
1
 40
1
 40
1
 10
118.727476
 20
18.785597
 30
0.0
 10
119.501614
 20
19.578106
 30
0.0
 10
120.291374
 20
20.006773
 30
0.0
 10
121.777748
 20
20.441198
 30
0.0
  0
SPLINE
  5
29f
100
AcDbEntity
  8
Contenu
 62
7
100
AcDbSpline
 70
8
 71
3
 72
8
 73
4
 74
0
 40
0
 40
0
 40
0
 40
0
 40
1
 40
1
 40
1
 40
1
 10
121.777748
 20
20.441198
 30
0.0
 10
122.229490
 20
20.573221
 30
0.0
 10
122.599099
 20
20.734060
 30
0.0
 10
122.599099
 20
20.798604
 30
0.0
  0
SPLINE
  5
2a0
100
AcDbEntity
  8
Contenu
 62
7
100
AcDbSpline
 70
8
 71
3
 72
8
 73
4
 74
0
 40
0
 40
0
 40
0
 40
0
 40
1
 40
1
 40
1
 40
1
 10
122.599099
 20
20.798604
 30
0.0
 10
122.599099
 20
20.863120
 30
0.0
 10
122.661470
 20
20.879799
 30
0.0
 10
122.737701
 20
20.835660
 30
0.0
  0
SPLINE
  5
2a1
100
AcDbEntity
  8
Contenu
 62
7
100
AcDbSpline
 70
8
 71
3
 72
8
 73
4
 74
0
 40
0
 40
0
 40
0
 40
0
 40
1
 40
1
 40
1
 40
1
 10
122.737701
 20
20.835660
 30
0.0
 10
122.944511
 20
20.715856
 30
0.0
 10
124.325032
 20
21.309426
 30
0.0
 10
124.217810
 20
21.472042
 30
0.0
  0
SPLINE
  5
2a2
100
AcDbEntity
  8
Contenu
 62
7
100
AcDbSpline
 70
8
 71
3
 72
8
 73
4
 74
0
 40
0
 40
0
 40
0
 40
0
 40
1
 40
1
 40
1
 40
1
 10
124.217810
 20
21.472042
 30
0.0
 10
124.167103
 20
21.548920
 30
0.0
 10
124.194922
 20
21.571102
 30
0.0
 10
124.280173
 20
21.521770
 30
0.0
  0
SPLINE
  5
2a3
100
AcDbEntity
  8
Contenu
 62
7
100
AcDbSpline
 70
8
 71
3
 72
8
 73
4
 74
0
 40
0
 40
0
 40
0
 40
0
 40
1
 40
1
 40
1
 40
1
 10
124.280173
 20
21.521770
 30
0.0
 10
124.510938
 20
21.388053
 30
0.0
 10
125.645146
 20
22.420591
 30
0.0
 10
126.000871
 20
23.088132
 30
0.0
  0
SPLINE
  5
2a4
100
AcDbEntity
  8
Contenu
 62
7
100
AcDbSpline
 70
8
 71
3
 72
8
 73
4
 74
0
 40
0
 40
0
 40
0
 40
0
 40
1
 40
1
 40
1
 40
1
 10
126.000871
 20
23.088132
 30
0.0
 10
126.524020
 20
24.069926
 30
0.0
 10
126.681921
 20
25.482053
 30
0.0
 10
126.355014
 20
26.255314
 30
0.0
  0
SPLINE
  5
2a5
100
AcDbEntity
  8
Contenu
 62
7
100
AcDbSpline
 70
8
 71
3
 72
8
 73
4
 74
0
 40
0
 40
0
 40
0
 40
0
 40
1
 40
1
 40
1
 40
1
 10
126.355014
 20
26.255314
 30
0.0
 10
126.308323
 20
26.365748
 30
0.0
 10
126.246378
 20
26.576624
 30
0.0
 10
126.217363
 20
26.723859
 30
0.0
  0
SPLINE
  5
2a6
100
AcDbEntity
  8
Contenu
 62
7
100
AcDbSpline
 70
8
 71
3
 72
8
 73
4
 74
0
 40
0
 40
0
 40
0
 40
0
 40
1
 40
1
 40
1
 40
1
 10
126.217363
 20
26.723859
 30
0.0
 10
126.105321
 20
27.292706
 30
0.0
 10
125.098279
 20
28.995748
 30
0.0
 10
124.059893
 20
30.372456
 30
0.0
  0
SPLINE
  5
2a7
100
AcDbEntity
  8
Contenu
 62
7
100
AcDbSpline
 70
8
 71
3
 72
8
 73
4
 74
0
 40
0
 40
0
 40
0
 40
0
 40
1
 40
1
 40
1
 40
1
 10
124.059893
 20
30.372456
 30
0.0
 10
121.444449
 20
33.840093
 30
0.0
 10
120.892846
 20
34.790377
 30
0.0
 10
120.621413
 20
36.296253
 30
0.0
  0
SPLINE
  5
2a8
100
AcDbEntity
  8
Contenu
 62
7
100
AcDbSpline
 70
8
 71
3
 72
8
 73
4
 74
0
 40
0
 40
0
 40
0
 40
0
 40
1
 40
1
 40
1
 40
1
 10
120.621413
 20
36.296253
 30
0.0
 10
120.243537
 20
38.392554
 30
0.0
 10
121.454042
 20
40.491447
 30
0.0
 10
123.642881
 20
41.535200
 30
0.0
  0
LINE
  5
2a9
100
AcDbEntity
  8
Contenu
 62
7
100
AcDbLine
 10
123.642881
 20
41.535200
 30
0.0
 11
124.472400
 21
41.930772
 31
0.0
  0
LINE
  5
2aa
100
AcDbEntity
  8
Contenu
 62
7
100
AcDbLine
 10
124.472400
 20
41.930772
 30
0.0
 11
124.399711
 21
42.627838
 31
0.0
  0
SPLINE
  5
2ab
100
AcDbEntity
  8
Contenu
 62
7
100
AcDbSpline
 70
8
 71
3
 72
8
 73
4
 74
0
 40
0
 40
0
 40
0
 40
0
 40
1
 40
1
 40
1
 40
1
 10
124.399711
 20
42.627838
 30
0.0
 10
124.359731
 20
43.011234
 30
0.0
 10
124.283224
 20
45.463643
 30
0.0
 10
124.229669
 20
48.077639
 30
0.0
  0
SPLINE
  5
2ac
100
AcDbEntity
  8
Contenu
 62
7
100
AcDbSpline
 70
8
 71
3
 72
8
 73
4
 74
0
 40
0
 40
0
 40
0
 40
0
 40
1
 40
1
 40
1
 40
1
 10
124.229669
 20
48.077639
 30
0.0
 10
124.162938
 20
51.336208
 30
0.0
 10
124.082183
 20
52.861278
 30
0.0
 10
123.972805
 20
52.928718
 30
0.0
  0
SPLINE
  5
2ad
100
AcDbEntity
  8
Contenu
 62
7
100
AcDbSpline
 70
8
 71
3
 72
8
 73
4
 74
0
 40
0
 40
0
 40
0
 40
0
 40
1
 40
1
 40
1
 40
1
 10
123.972805
 20
52.928718
 30
0.0
 10
123.861462
 20
52.997360
 30
0.0
 10
123.868405
 20
53.027693
 30
0.0
 10
123.995778
 20
53.029127
 30
0.0
  0
SPLINE
  5
2ae
100
AcDbEntity
  8
Contenu
 62
7
100
AcDbSpline
 70
8
 71
3
 72
8
 73
4
 74
0
 40
0
 40
0
 40
0
 40
0
 40
1
 40
1
 40
1
 40
1
 10
123.995778
 20
53.029127
 30
0.0
 10
124.240857
 20
53.031949
 30
0.0
 10
124.074726
 20
68.840265
 30
0.0
 10
123.827991
 20
68.994257
 30
0.0
  0
SPLINE
  5
2af
100
AcDbEntity
  8
Contenu
 62
7
100
AcDbSpline
 70
8
 71
3
 72
8
 73
4
 74
0
 40
0
 40
0
 40
0
 40
0
 40
1
 40
1
 40
1
 40
1
 10
123.827991
 20
68.994257
 30
0.0
 10
123.718125
 20
69.062829
 30
0.0
 10
123.723854
 20
69.093227
 30
0.0
 10
123.846956
 20
69.094663
 30
0.0
  0
SPLINE
  5
2b0
100
AcDbEntity
  8
Contenu
 62
7
100
AcDbSpline
 70
8
 71
3
 72
8
 73
4
 74
0
 40
0
 40
0
 40
0
 40
0
 40
1
 40
1
 40
1
 40
1
 10
123.846956
 20
69.094663
 30
0.0
 10
123.986035
 20
69.096639
 30
0.0
 10
124.023441
 20
72.228724
 30
0.0
 10
124.023204
 20
83.856923
 30
0.0
  0
SPLINE
  5
2b1
100
AcDbEntity
  8
Contenu
 62
7
100
AcDbSpline
 70
8
 71
3
 72
8
 73
4
 74
0
 40
0
 40
0
 40
0
 40
0
 40
1
 40
1
 40
1
 40
1
 10
124.023204
 20
83.856923
 30
0.0
 10
124.023071
 20
91.975034
 30
0.0
 10
124.055507
 20
100.364256
 30
0.0
 10
124.095340
 20
102.499634
 30
0.0
  0
SPLINE
  5
2b2
100
AcDbEntity
  8
Contenu
 62
7
100
AcDbSpline
 70
8
 71
3
 72
8
 73
4
 74
0
 40
0
 40
0
 40
0
 40
0
 40
1
 40
1
 40
1
 40
1
 10
124.095340
 20
102.499634
 30
0.0
 10
124.135173
 20
104.635012
 30
0.0
 10
124.203586
 20
108.912462
 30
0.0
 10
124.247365
 20
112.005073
 30
0.0
  0
SPLINE
  5
2b3
100
AcDbEntity
  8
Contenu
 62
7
100
AcDbSpline
 70
8
 71
3
 72
8
 73
4
 74
0
 40
0
 40
0
 40
0
 40
0
 40
1
 40
1
 40
1
 40
1
 10
124.247365
 20
112.005073
 30
0.0
 10
124.291140
 20
115.097690
 30
0.0
 10
124.361981
 20
118.034675
 30
0.0
 10
124.404771
 20
118.531699
 30
0.0
  0
SPLINE
  5
2b4
100
AcDbEntity
  8
Contenu
 62
7
100
AcDbSpline
 70
8
 71
3
 72
8
 73
4
 74
0
 40
0
 40
0
 40
0
 40
0
 40
1
 40
1
 40
1
 40
1
 10
124.404771
 20
118.531699
 30
0.0
 10
124.457640
 20
119.145595
 30
0.0
 10
124.432034
 20
119.435386
 30
0.0
 10
124.324911
 20
119.435386
 30
0.0
  0
SPLINE
  5
2b5
100
AcDbEntity
  8
Contenu
 62
7
100
AcDbSpline
 70
8
 71
3
 72
8
 73
4
 74
0
 40
0
 40
0
 40
0
 40
0
 40
1
 40
1
 40
1
 40
1
 10
124.324911
 20
119.435386
 30
0.0
 10
123.920653
 20
119.435386
 30
0.0
 10
122.867304
 20
120.041571
 30
0.0
 10
122.215370
 20
120.649393
 30
0.0
  0
SPLINE
  5
2b6
100
AcDbEntity
  8
Contenu
 62
7
100
AcDbSpline
 70
8
 71
3
 72
8
 73
4
 74
0
 40
0
 40
0
 40
0
 40
0
 40
1
 40
1
 40
1
 40
1
 10
122.215370
 20
120.649393
 30
0.0
 10
119.906236
 20
122.802303
 30
0.0
 10
119.989125
 20
125.345311
 30
0.0
 10
122.477727
 20
128.698670
 30
0.0
  0
SPLINE
  5
2b7
100
AcDbEntity
  8
Contenu
 62
7
100
AcDbSpline
 70
8
 71
3
 72
8
 73
4
 74
0
 40
0
 40
0
 40
0
 40
0
 40
1
 40
1
 40
1
 40
1
 10
122.477727
 20
128.698670
 30
0.0
 10
125.589142
 20
132.891262
 30
0.0
 10
126.163072
 20
133.853693
 30
0.0
 10
126.456626
 20
135.371033
 30
0.0
  0
SPLINE
  5
2b8
100
AcDbEntity
  8
Contenu
 62
7
100
AcDbSpline
 70
8
 71
3
 72
8
 73
4
 74
0
 40
0
 40
0
 40
0
 40
0
 40
1
 40
1
 40
1
 40
1
 10
126.456626
 20
135.371033
 30
0.0
 10
126.829760
 20
137.299562
 30
0.0
 10
125.698427
 20
139.259556
 30
0.0
 10
123.741831
 20
140.074342
 30
0.0
  0
SPLINE
  5
2b9
100
AcDbEntity
  8
Contenu
 62
7
100
AcDbSpline
 70
8
 71
3
 72
8
 73
4
 74
0
 40
0
 40
0
 40
0
 40
0
 40
1
 40
1
 40
1
 40
1
 10
123.741831
 20
140.074342
 30
0.0
 10
123.388297
 20
140.221566
 30
0.0
 10
122.520517
 20
140.521916
 30
0.0
 10
121.813446
 20
140.741784
 30
0.0
  0
SPLINE
  5
2ba
100
AcDbEntity
  8
Contenu
 62
7
100
AcDbSpline
 70
8
 71
3
 72
8
 73
4
 74
0
 40
0
 40
0
 40
0
 40
0
 40
1
 40
1
 40
1
 40
1
 10
121.813446
 20
140.741784
 30
0.0
 10
121.106370
 20
140.961655
 30
0.0
 10
120.268536
 20
141.283109
 30
0.0
 10
119.951573
 20
141.456133
 30
0.0
  0
SPLINE
  5
2bb
100
AcDbEntity
  8
Contenu
 62
7
100
AcDbSpline
 70
8
 71
3
 72
8
 73
4
 74
0
 40
0
 40
0
 40
0
 40
0
 40
1
 40
1
 40
1
 40
1
 10
119.951573
 20
141.456133
 30
0.0
 10
118.599962
 20
142.193941
 30
0.0
 10
117.339129
 20
143.949510
 30
0.0
 10
117.202299
 20
145.284176
 30
0.0
  0
LINE
  5
2bc
100
AcDbEntity
  8
Contenu
 62
7
100
AcDbLine
 10
117.202299
 20
145.284176
 30
0.0
 11
117.138212
 21
145.909236
 31
0.0
  0
LINE
  5
2bd
100
AcDbEntity
  8
Contenu
 62
7
100
AcDbLine
 10
117.138212
 20
145.909236
 30
0.0
 11
116.388599
 21
145.981745
 31
0.0
  0
SPLINE
  5
2be
100
AcDbEntity
  8
Contenu
 62
7
100
AcDbSpline
 70
8
 71
3
 72
8
 73
4
 74
0
 40
0
 40
0
 40
0
 40
0
 40
1
 40
1
 40
1
 40
1
 10
116.388599
 20
145.981745
 30
0.0
 10
115.433093
 20
146.074175
 30
0.0
 10
114.326635
 20
146.599910
 30
0.0
 10
113.426115
 20
147.389382
 30
0.0
  0
SPLINE
  5
2bf
100
AcDbEntity
  8
Contenu
 62
7
100
AcDbSpline
 70
8
 71
3
 72
8
 73
4
 74
0
 40
0
 40
0
 40
0
 40
0
 40
1
 40
1
 40
1
 40
1
 10
113.426115
 20
147.389382
 30
0.0
 10
112.493836
 20
148.206697
 30
0.0
 10
112.137621
 20
148.805019
 30
0.0
 10
111.472048
 20
150.671598
 30
0.0
  0
SPLINE
  5
2c0
100
AcDbEntity
  8
Contenu
 62
7
100
AcDbSpline
 70
8
 71
3
 72
8
 73
4
 74
0
 40
0
 40
0
 40
0
 40
0
 40
1
 40
1
 40
1
 40
1
 10
111.472048
 20
150.671598
 30
0.0
 10
110.725914
 20
152.764084
 30
0.0
 10
109.987514
 20
153.690534
 30
0.0
 10
108.457587
 20
154.453768
 30
0.0
  0
SPLINE
  5
2c1
100
AcDbEntity
  8
Contenu
 62
7
100
AcDbSpline
 70
8
 71
3
 72
8
 73
4
 74
0
 40
0
 40
0
 40
0
 40
0
 40
1
 40
1
 40
1
 40
1
 10
108.457587
 20
154.453768
 30
0.0
 10
107.709952
 20
154.826747
 30
0.0
 10
105.801402
 20
154.792629
 30
0.0
 10
104.692300
 20
154.386461
 30
0.0
  0
SPLINE
  5
2c2
100
AcDbEntity
  8
Contenu
 62
7
100
AcDbSpline
 70
8
 71
3
 72
8
 73
4
 74
0
 40
0
 40
0
 40
0
 40
0
 40
1
 40
1
 40
1
 40
1
 10
104.692300
 20
154.386461
 30
0.0
 10
103.469990
 20
153.938842
 30
0.0
 10
102.016277
 20
153.141141
 30
0.0
 10
100.315891
 20
151.984987
 30
0.0
  0
SPLINE
  5
2c3
100
AcDbEntity
  8
Contenu
 62
7
100
AcDbSpline
 70
8
 71
3
 72
8
 73
4
 74
0
 40
0
 40
0
 40
0
 40
0
 40
1
 40
1
 40
1
 40
1
 10
100.315891
 20
151.984987
 30
0.0
 10
96.921556
 20
149.677061
 30
0.0
 10
95.382886
 20
149.053815
 30
0.0
 10
93.481519
 20
149.216720
 30
0.0
  0
SPLINE
  5
2c4
100
AcDbEntity
  8
Contenu
 62
7
100
AcDbSpline
 70
8
 71
3
 72
8
 73
4
 74
0
 40
0
 40
0
 40
0
 40
0
 40
1
 40
1
 40
1
 40
1
 10
93.481519
 20
149.216720
 30
0.0
 10
92.879925
 20
149.268259
 30
0.0
 10
92.205569
 20
149.314340
 30
0.0
 10
91.982941
 20
149.319115
 30
0.0
  0
SPLINE
  5
2c5
100
AcDbEntity
  8
Contenu
 62
7
100
AcDbSpline
 70
8
 71
3
 72
8
 73
4
 74
0
 40
0
 40
0
 40
0
 40
0
 40
1
 40
1
 40
1
 40
1
 10
91.982941
 20
149.319115
 30
0.0
 10
91.740809
 20
149.324337
 30
0.0
 10
91.647946
 20
149.368211
 30
0.0
 10
91.751804
 20
149.428378
 30
0.0
  0
SPLINE
  5
2c6
100
AcDbEntity
  8
Contenu
 62
7
100
AcDbSpline
 70
8
 71
3
 72
8
 73
4
 74
0
 40
0
 40
0
 40
0
 40
0
 40
1
 40
1
 40
1
 40
1
 10
91.751804
 20
149.428378
 30
0.0
 10
91.866437
 20
149.494771
 30
0.0
 10
91.756856
 20
149.603951
 30
0.0
 10
91.429125
 20
149.749685
 30
0.0
  0
SPLINE
  5
2c7
100
AcDbEntity
  8
Contenu
 62
7
100
AcDbSpline
 70
8
 71
3
 72
8
 73
4
 74
0
 40
0
 40
0
 40
0
 40
0
 40
1
 40
1
 40
1
 40
1
 10
91.429125
 20
149.749685
 30
0.0
 10
90.720996
 20
150.064622
 30
0.0
 10
89.458113
 20
151.268120
 30
0.0
 10
89.149108
 20
151.922494
 30
0.0
  0
SPLINE
  5
2c8
100
AcDbEntity
  8
Contenu
 62
7
100
AcDbSpline
 70
8
 71
3
 72
8
 73
4
 74
0
 40
0
 40
0
 40
0
 40
0
 40
1
 40
1
 40
1
 40
1
 10
89.149108
 20
151.922494
 30
0.0
 10
89.004475
 20
152.228762
 30
0.0
 10
88.845285
 20
152.758716
 30
0.0
 10
88.795348
 20
153.100168
 30
0.0
  0
LINE
  5
2c9
100
AcDbEntity
  8
Contenu
 62
7
100
AcDbLine
 10
88.795348
 20
153.100168
 30
0.0
 11
88.704549
 21
153.720986
 31
0.0
  0
LINE
  5
2ca
100
AcDbEntity
  8
Contenu
 62
7
100
AcDbLine
 10
88.704549
 20
153.720986
 30
0.0
 11
87.760685
 21
153.635473
 31
0.0
  0
SPLINE
  5
2cb
100
AcDbEntity
  8
Contenu
 62
7
100
AcDbSpline
 70
8
 71
3
 72
8
 73
4
 74
0
 40
0
 40
0
 40
0
 40
0
 40
1
 40
1
 40
1
 40
1
 10
87.760685
 20
153.635473
 30
0.0
 10
84.657669
 20
153.354326
 30
0.0
 10
50.644199
 20
153.281256
 30
0.0
 10
45.499172
 20
153.544671
 30
0.0
  0
SPLINE
  5
2cc
100
AcDbEntity
  8
Contenu
 62
7
100
AcDbSpline
 70
8
 71
3
 72
8
 73
4
 74
0
 40
0
 40
0
 40
0
 40
0
 40
1
 40
1
 40
1
 40
1
 10
45.499172
 20
153.544671
 30
0.0
 10
44.265454
 20
153.607841
 30
0.0
 10
43.602418
 20
153.594966
 30
0.0
 10
43.595219
 20
153.507705
 30
0.0
  0
SPLINE
  5
2cd
100
AcDbEntity
  8
Contenu
 62
7
100
AcDbSpline
 70
8
 71
3
 72
8
 73
4
 74
0
 40
0
 40
0
 40
0
 40
0
 40
1
 40
1
 40
1
 40
1
 10
43.595219
 20
153.507705
 30
0.0
 10
43.589095
 20
153.434076
 30
0.0
 10
43.551725
 20
153.449136
 30
0.0
 10
43.512101
 20
153.541177
 30
0.0
  0
SPLINE
  5
2ce
100
AcDbEntity
  8
Contenu
 62
7
100
AcDbSpline
 70
8
 71
3
 72
8
 73
4
 74
0
 40
0
 40
0
 40
0
 40
0
 40
1
 40
1
 40
1
 40
1
 10
43.512101
 20
153.541177
 30
0.0
 10
43.366819
 20
153.878630
 30
0.0
 10
43.224438
 20
153.693879
 30
0.0
 10
43.202563
 20
153.139538
 30
0.0
  0
SPLINE
  5
2cf
100
AcDbEntity
  8
Contenu
 62
7
100
AcDbSpline
 70
8
 71
3
 72
8
 73
4
 74
0
 40
0
 40
0
 40
0
 40
0
 40
1
 40
1
 40
1
 40
1
 10
43.202563
 20
153.139538
 30
0.0
 10
43.174279
 20
152.422773
 30
0.0
 10
42.959702
 20
151.911236
 30
0.0
 10
42.402756
 20
151.232887
 30
0.0
  0
SPLINE
  5
2d0
100
AcDbEntity
  8
Contenu
 62
7
100
AcDbSpline
 70
8
 71
3
 72
8
 73
4
 74
0
 40
0
 40
0
 40
0
 40
0
 40
1
 40
1
 40
1
 40
1
 10
42.402756
 20
151.232887
 30
0.0
 10
41.794367
 20
150.491881
 30
0.0
 10
41.383511
 20
150.172084
 30
0.0
 10
40.405258
 20
149.678108
 30
0.0
  0
SPLINE
  5
2d1
100
AcDbEntity
  8
Contenu
 62
7
100
AcDbSpline
 70
8
 71
3
 72
8
 73
4
 74
0
 40
0
 40
0
 40
0
 40
0
 40
1
 40
1
 40
1
 40
1
 10
40.405258
 20
149.678108
 30
0.0
 10
39.407721
 20
149.174378
 30
0.0
 10
38.078545
 20
149.027724
 30
0.0
 10
36.873233
 20
149.288401
 30
0.0
  0
SPLINE
  5
2d2
100
AcDbEntity
  8
Contenu
 62
7
100
AcDbSpline
 70
8
 71
3
 72
8
 73
4
 74
0
 40
0
 40
0
 40
0
 40
0
 40
1
 40
1
 40
1
 40
1
 10
36.873233
 20
149.288401
 30
0.0
 10
35.833586
 20
149.513245
 30
0.0
 10
34.114866
 20
150.379475
 30
0.0
 10
32.316947
 20
151.584750
 30
0.0
  0
SPLINE
  5
2d3
100
AcDbEntity
  8
Contenu
 62
7
100
AcDbSpline
 70
8
 71
3
 72
8
 73
4
 74
0
 40
0
 40
0
 40
0
 40
0
 40
1
 40
1
 40
1
 40
1
 10
32.316947
 20
151.584750
 30
0.0
 10
30.180545
 20
153.016938
 30
0.0
 10
29.552388
 20
153.396256
 30
0.0
 10
28.474757
 20
153.904885
 30
0.0
  0
SPLINE
  5
2d4
100
AcDbEntity
  8
Contenu
 62
7
100
AcDbSpline
 70
8
 71
3
 72
8
 73
4
 74
0
 40
0
 40
0
 40
0
 40
0
 40
1
 40
1
 40
1
 40
1
 10
28.474757
 20
153.904885
 30
0.0
 10
26.400879
 20
154.883736
 30
0.0
 10
24.811968
 20
155.018178
 30
0.0
 10
23.376216
 20
154.336287
 30
0.0
  0
SPLINE
  5
2d5
100
AcDbEntity
  8
Contenu
 62
7
100
AcDbSpline
 70
8
 71
3
 72
8
 73
4
 74
0
 40
0
 40
0
 40
0
 40
0
 40
1
 40
1
 40
1
 40
1
 10
23.376216
 20
154.336287
 30
0.0
 10
22.704032
 20
154.017037
 30
0.0
 10
21.227286
 20
152.682705
 30
0.0
 10
21.383805
 20
152.536009
 30
0.0
  0
SPLINE
  5
2d6
100
AcDbEntity
  8
Contenu
 62
7
100
AcDbSpline
 70
8
 71
3
 72
8
 73
4
 74
0
 40
0
 40
0
 40
0
 40
0
 40
1
 40
1
 40
1
 40
1
 10
21.383805
 20
152.536009
 30
0.0
 10
21.421523
 20
152.500657
 30
0.0
 10
21.363439
 20
152.388384
 30
0.0
 10
21.254737
 20
152.286504
 30
0.0
  0
SPLINE
  5
2d7
100
AcDbEntity
  8
Contenu
 62
7
100
AcDbSpline
 70
8
 71
3
 72
8
 73
4
 74
0
 40
0
 40
0
 40
0
 40
0
 40
1
 40
1
 40
1
 40
1
 10
21.254737
 20
152.286504
 30
0.0
 10
21.146043
 20
152.184622
 30
0.0
 10
20.857275
 20
151.514031
 30
0.0
 10
20.613043
 20
150.796295
 30
0.0
  0
SPLINE
  5
2d8
100
AcDbEntity
  8
Contenu
 62
7
100
AcDbSpline
 70
8
 71
3
 72
8
 73
4
 74
0
 40
0
 40
0
 40
0
 40
0
 40
1
 40
1
 40
1
 40
1
 10
20.613043
 20
150.796295
 30
0.0
 10
20.032638
 20
149.090693
 30
0.0
 10
19.680739
 20
148.449648
 30
0.0
 10
18.865609
 20
147.613096
 30
0.0
  0
SPLINE
  5
2d9
100
AcDbEntity
  8
Contenu
 62
7
100
AcDbSpline
 70
8
 71
3
 72
8
 73
4
 74
0
 40
0
 40
0
 40
0
 40
0
 40
1
 40
1
 40
1
 40
1
 10
18.865609
 20
147.613096
 30
0.0
 10
18.081412
 20
146.808286
 30
0.0
 10
16.681399
 20
146.104494
 30
0.0
 10
15.633136
 20
145.988137
 30
0.0
  0
LINE
  5
2da
100
AcDbEntity
  8
Contenu
 62
7
100
AcDbLine
 10
15.633136
 20
145.988137
 30
0.0
 11
14.930763
 21
145.910173
 31
0.0
  0
LINE
  5
2db
100
AcDbEntity
  8
Contenu
 62
7
100
AcDbLine
 10
14.930763
 20
145.910173
 30
0.0
 11
14.844389
 21
145.223975
 31
0.0
  0
SPLINE
  5
2dc
100
AcDbEntity
  8
Contenu
 62
7
100
AcDbSpline
 70
8
 71
3
 72
8
 73
4
 74
0
 40
0
 40
0
 40
0
 40
0
 40
1
 40
1
 40
1
 40
1
 10
14.844389
 20
145.223975
 30
0.0
 10
14.717063
 20
144.212471
 30
0.0
 10
13.984115
 20
142.970219
 30
0.0
 10
13.022168
 20
142.135510
 30
0.0
  0
SPLINE
  5
2dd
100
AcDbEntity
  8
Contenu
 62
7
100
AcDbSpline
 70
8
 71
3
 72
8
 73
4
 74
0
 40
0
 40
0
 40
0
 40
0
 40
1
 40
1
 40
1
 40
1
 10
13.022168
 20
142.135510
 30
0.0
 10
12.189957
 20
141.413377
 30
0.0
 10
11.879673
 20
141.273406
 30
0.0
 10
9.130609
 20
140.380003
 30
0.0
  0
SPLINE
  5
2de
100
AcDbEntity
  8
Contenu
 62
7
100
AcDbSpline
 70
8
 71
3
 72
8
 73
4
 74
0
 40
0
 40
0
 40
0
 40
0
 40
1
 40
1
 40
1
 40
1
 10
9.130609
 20
140.380003
 30
0.0
 10
7.979307
 20
140.005847
 30
0.0
 10
6.793928
 20
139.279119
 30
0.0
 10
6.863788
 20
138.990282
 30
0.0
  0
SPLINE
  5
2df
100
AcDbEntity
  8
Contenu
 62
7
100
AcDbSpline
 70
8
 71
3
 72
8
 73
4
 74
0
 40
0
 40
0
 40
0
 40
0
 40
1
 40
1
 40
1
 40
1
 10
6.863788
 20
138.990282
 30
0.0
 10
6.885369
 20
138.901029
 30
0.0
 10
6.845762
 20
138.861185
 30
0.0
 10
6.775747
 20
138.901740
 30
0.0
  0
SPLINE
  5
2e0
100
AcDbEntity
  8
Contenu
 62
7
100
AcDbSpline
 70
8
 71
3
 72
8
 73
4
 74
0
 40
0
 40
0
 40
0
 40
0
 40
1
 40
1
 40
1
 40
1
 10
6.775747
 20
138.901740
 30
0.0
 10
6.606477
 20
138.999784
 30
0.0
 10
6.288412
 20
138.646535
 30
0.0
 10
5.883437
 20
137.910751
 30
0.0
  0
SPLINE
  5
2e1
100
AcDbEntity
  8
Contenu
 62
7
100
AcDbSpline
 70
8
 71
3
 72
8
 73
4
 74
0
 40
0
 40
0
 40
0
 40
0
 40
1
 40
1
 40
1
 40
1
 10
5.883437
 20
137.910751
 30
0.0
 10
5.452435
 20
137.127649
 30
0.0
 10
5.421652
 20
135.521387
 30
0.0
 10
5.816806
 20
134.433606
 30
0.0
  0
SPLINE
  5
2e2
100
AcDbEntity
  8
Contenu
 62
7
100
AcDbSpline
 70
8
 71
3
 72
8
 73
4
 74
0
 40
0
 40
0
 40
0
 40
0
 40
1
 40
1
 40
1
 40
1
 10
5.816806
 20
134.433606
 30
0.0
 10
6.128725
 20
133.574962
 30
0.0
 10
7.240121
 20
131.723977
 30
0.0
 10
8.039881
 20
130.731189
 30
0.0
  0
SPLINE
  5
2e3
100
AcDbEntity
  8
Contenu
 62
7
100
AcDbSpline
 70
8
 71
3
 72
8
 73
4
 74
0
 40
0
 40
0
 40
0
 40
0
 40
1
 40
1
 40
1
 40
1
 10
8.039881
 20
130.731189
 30
0.0
 10
9.826717
 20
128.513038
 30
0.0
 10
10.841128
 20
126.873548
 30
0.0
 10
11.257695
 20
125.530528
 30
0.0
  0
SPLINE
  5
2e4
100
AcDbEntity
  8
Contenu
 62
7
100
AcDbSpline
 70
8
 71
3
 72
8
 73
4
 74
0
 40
0
 40
0
 40
0
 40
0
 40
1
 40
1
 40
1
 40
1
 10
11.257695
 20
125.530528
 30
0.0
 10
11.564243
 20
124.542245
 30
0.0
 10
11.487288
 20
123.094375
 30
0.0
 10
11.083173
 20
122.246856
 30
0.0
  0
SPLINE
  5
2e5
100
AcDbEntity
  8
Contenu
 62
7
100
AcDbSpline
 70
8
 71
3
 72
8
 73
4
 74
0
 40
0
 40
0
 40
0
 40
0
 40
1
 40
1
 40
1
 40
1
 10
11.083173
 20
122.246856
 30
0.0
 10
10.711781
 20
121.467925
 30
0.0
 10
9.608242
 20
120.327454
 30
0.0
 10
8.792292
 20
119.879279
 30
0.0
  0
LINE
  5
2e6
100
AcDbEntity
  8
Contenu
 62
7
100
AcDbLine
 10
8.792292
 20
119.879279
 30
0.0
 11
8.150510
 21
119.526775
 31
0.0
  0
LINE
  5
2e7
100
AcDbEntity
  8
Contenu
 62
7
100
AcDbLine
 10
8.150510
 20
119.526775
 30
0.0
 11
8.242912
 21
118.175758
 31
0.0
  0
SPLINE
  5
2e8
100
AcDbEntity
  8
Contenu
 62
7
100
AcDbSpline
 70
8
 71
3
 72
8
 73
4
 74
0
 40
0
 40
0
 40
0
 40
0
 40
1
 40
1
 40
1
 40
1
 10
8.242912
 20
118.175758
 30
0.0
 10
8.689491
 20
111.646645
 30
0.0
 10
8.692154
 20
48.102712
 30
0.0
 10
8.246036
 20
42.696607
 30
0.0
  0
LINE
  5
2e9
100
AcDbEntity
  8
Contenu
 62
7
100
AcDbLine
 10
8.246036
 20
42.696607
 30
0.0
 11
8.161059
 21
41.666654
 31
0.0
  0
LINE
  5
2ea
100
AcDbEntity
  8
Contenu
 62
7
100
AcDbLine
 10
8.161059
 20
41.666654
 30
0.0
 11
8.720766
 21
41.399020
 31
0.0
  0
SPLINE
  5
2eb
100
AcDbEntity
  8
Contenu
 62
7
100
AcDbSpline
 70
8
 71
3
 72
8
 73
4
 74
0
 40
0
 40
0
 40
0
 40
0
 40
1
 40
1
 40
1
 40
1
 10
8.720766
 20
41.399020
 30
0.0
 10
9.431399
 20
41.059233
 30
0.0
 10
10.608101
 20
39.857985
 30
0.0
 10
11.052835
 20
39.018309
 30
0.0
  0
SPLINE
  5
2ec
100
AcDbEntity
  8
Contenu
 62
7
100
AcDbSpline
 70
8
 71
3
 72
8
 73
4
 74
0
 40
0
 40
0
 40
0
 40
0
 40
1
 40
1
 40
1
 40
1
 10
11.052835
 20
39.018309
 30
0.0
 10
11.345707
 20
38.465342
 30
0.0
 10
11.395478
 20
38.176621
 30
0.0
 10
11.395478
 20
37.030601
 30
0.0
  0
SPLINE
  5
2ed
100
AcDbEntity
  8
Contenu
 62
7
100
AcDbSpline
 70
8
 71
3
 72
8
 73
4
 74
0
 40
0
 40
0
 40
0
 40
0
 40
1
 40
1
 40
1
 40
1
 10
11.395478
 20
37.030601
 30
0.0
 10
11.395478
 20
35.708974
 30
0.0
 10
11.386106
 20
35.671706
 30
0.0
 10
10.735722
 20
34.419946
 30
0.0
  0
SPLINE
  5
2ee
100
AcDbEntity
  8
Contenu
 62
7
100
AcDbSpline
 70
8
 71
3
 72
8
 73
4
 74
0
 40
0
 40
0
 40
0
 40
0
 40
1
 40
1
 40
1
 40
1
 10
10.735722
 20
34.419946
 30
0.0
 10
10.372855
 20
33.721503
 30
0.0
 10
9.387890
 20
32.246384
 30
0.0
 10
8.546930
 20
31.141879
 30
0.0
  0
SPLINE
  5
2ef
100
AcDbEntity
  8
Contenu
 62
7
100
AcDbSpline
 70
8
 71
3
 72
8
 73
4
 74
0
 40
0
 40
0
 40
0
 40
0
 40
1
 40
1
 40
1
 40
1
 10
8.546930
 20
31.141879
 30
0.0
 10
6.907638
 20
28.988890
 30
0.0
 10
5.863362
 20
27.167089
 30
0.0
 10
5.597779
 20
25.996940
 30
0.0
  0
SPLINE
  5
2f0
100
AcDbEntity
  8
Contenu
 62
7
100
AcDbSpline
 70
8
 71
3
 72
8
 73
4
 74
0
 40
0
 40
0
 40
0
 40
0
 40
1
 40
1
 40
1
 40
1
 10
5.597779
 20
25.996940
 30
0.0
 10
5.241310
 20
24.426288
 30
0.0
 10
5.744997
 20
23.029937
 30
0.0
 10
7.080791
 20
21.885724
 30
0.0
  0
SPLINE
  5
2f1
100
AcDbEntity
  8
Contenu
 62
7
100
AcDbSpline
 70
8
 71
3
 72
8
 73
4
 74
0
 40
0
 40
0
 40
0
 40
0
 40
1
 40
1
 40
1
 40
1
 10
7.080791
 20
21.885724
 30
0.0
 10
7.738957
 20
21.321957
 30
0.0
 10
8.099355
 20
21.144326
 30
0.0
 10
9.482466
 20
20.702225
 30
0.0
  0
SPLINE
  5
2f2
100
AcDbEntity
  8
Contenu
 62
7
100
AcDbSpline
 70
8
 71
3
 72
8
 73
4
 74
0
 40
0
 40
0
 40
0
 40
0
 40
1
 40
1
 40
1
 40
1
 10
9.482466
 20
20.702225
 30
0.0
 10
11.906456
 20
19.927327
 30
0.0
 10
12.320598
 20
19.725426
 30
0.0
 10
13.187674
 20
18.895692
 30
0.0
  0
SPLINE
  5
2f3
100
AcDbEntity
  8
Contenu
 62
7
100
AcDbSpline
 70
8
 71
3
 72
8
 73
4
 74
0
 40
0
 40
0
 40
0
 40
0
 40
1
 40
1
 40
1
 40
1
 10
13.187674
 20
18.895692
 30
0.0
 10
14.078392
 20
18.043296
 30
0.0
 10
14.732240
 20
16.881190
 30
0.0
 10
14.851308
 20
15.938906
 30
0.0
  0
LINE
  5
2f4
100
AcDbEntity
  8
Contenu
 62
7
100
AcDbLine
 10
14.851308
 20
15.938906
 30
0.0
 11
14.931137
 21
15.307180
 31
0.0
  0
LINE
  5
2f5
100
AcDbEntity
  8
Contenu
 62
7
100
AcDbLine
 10
14.931137
 20
15.307180
 30
0.0
 11
15.646112
 21
15.218280
 31
0.0
  0
SPLINE
  5
2f6
100
AcDbEntity
  8
Contenu
 62
7
100
AcDbSpline
 70
8
 71
3
 72
8
 73
4
 74
0
 40
0
 40
0
 40
0
 40
0
 40
1
 40
1
 40
1
 40
1
 10
15.646112
 20
15.218280
 30
0.0
 10
17.129108
 20
15.033876
 30
0.0
 10
18.933607
 20
13.861836
 30
0.0
 10
19.659817
 20
12.611252
 30
0.0
  0
SPLINE
  5
2f7
100
AcDbEntity
  8
Contenu
 62
7
100
AcDbSpline
 70
8
 71
3
 72
8
 73
4
 74
0
 40
0
 40
0
 40
0
 40
0
 40
1
 40
1
 40
1
 40
1
 10
19.659817
 20
12.611252
 30
0.0
 10
19.878903
 20
12.234006
 30
0.0
 10
20.276737
 20
11.317010
 30
0.0
 10
20.543899
 20
10.573439
 30
0.0
  0
SPLINE
  5
2f8
100
AcDbEntity
  8
Contenu
 62
7
100
AcDbSpline
 70
8
 71
3
 72
8
 73
4
 74
0
 40
0
 40
0
 40
0
 40
0
 40
1
 40
1
 40
1
 40
1
 10
20.543899
 20
10.573439
 30
0.0
 10
21.146994
 20
8.894978
 30
0.0
 10
21.549277
 20
8.242989
 30
0.0
 10
22.450249
 20
7.483754
 30
0.0
  0
SPLINE
  5
2f9
100
AcDbEntity
  8
Contenu
 62
7
100
AcDbSpline
 70
8
 71
3
 72
8
 73
4
 74
0
 40
0
 40
0
 40
0
 40
0
 40
1
 40
1
 40
1
 40
1
 10
22.450249
 20
7.483754
 30
0.0
 10
23.714144
 20
6.418704
 30
0.0
 10
25.191487
 20
6.195156
 30
0.0
 10
27.144483
 20
6.773429
 30
0.0
  0
LINE
  5
2fa
100
AcDbEntity
  8
Contenu
 62
7
100
AcDbLine
 10
27.144483
 20
6.773429
 30
0.0
 11
27.144578
 21
6.772385
 31
0.0
  0
SPLINE
  5
2fb
100
AcDbEntity
  8
Contenu
 62
7
100
AcDbSpline
 70
8
 71
3
 72
8
 73
4
 74
0
 40
0
 40
0
 40
0
 40
0
 40
1
 40
1
 40
1
 40
1
 10
96.646604
 20
11.991238
 30
0.0
 10
96.076510
 20
12.223648
 30
0.0
 10
95.744594
 20
12.810332
 30
0.0
 10
95.744594
 20
13.585596
 30
0.0
  0
SPLINE
  5
2fc
100
AcDbEntity
  8
Contenu
 62
7
100
AcDbSpline
 70
8
 71
3
 72
8
 73
4
 74
0
 40
0
 40
0
 40
0
 40
0
 40
1
 40
1
 40
1
 40
1
 10
95.744594
 20
13.585596
 30
0.0
 10
95.744594
 20
14.298828
 30
0.0
 10
96.320547
 20
15.098364
 30
0.0
 10
97.297507
 20
15.741323
 30
0.0
  0
SPLINE
  5
2fd
100
AcDbEntity
  8
Contenu
 62
7
100
AcDbSpline
 70
8
 71
3
 72
8
 73
4
 74
0
 40
0
 40
0
 40
0
 40
0
 40
1
 40
1
 40
1
 40
1
 10
97.297507
 20
15.741323
 30
0.0
 10
97.857735
 20
16.110018
 30
0.0
 10
98.011115
 20
16.145465
 30
0.0
 10
99.007136
 20
16.136067
 30
0.0
  0
SPLINE
  5
2fe
100
AcDbEntity
  8
Contenu
 62
7
100
AcDbSpline
 70
8
 71
3
 72
8
 73
4
 74
0
 40
0
 40
0
 40
0
 40
0
 40
1
 40
1
 40
1
 40
1
 10
99.007136
 20
16.136067
 30
0.0
 10
100.334374
 20
16.123649
 30
0.0
 10
100.864531
 20
15.914268
 30
0.0
 10
102.755507
 20
14.656432
 30
0.0
  0
SPLINE
  5
2ff
100
AcDbEntity
  8
Contenu
 62
7
100
AcDbSpline
 70
8
 71
3
 72
8
 73
4
 74
0
 40
0
 40
0
 40
0
 40
0
 40
1
 40
1
 40
1
 40
1
 10
102.755507
 20
14.656432
 30
0.0
 10
103.495483
 20
14.164208
 30
0.0
 10
104.602892
 20
13.516000
 30
0.0
 10
105.216400
 20
13.215942
 30
0.0
  0
SPLINE
  5
300
100
AcDbEntity
  8
Contenu
 62
7
100
AcDbSpline
 70
8
 71
3
 72
8
 73
4
 74
0
 40
0
 40
0
 40
0
 40
0
 40
1
 40
1
 40
1
 40
1
 10
105.216400
 20
13.215942
 30
0.0
 10
106.176298
 20
12.746522
 30
0.0
 10
106.458429
 20
12.670068
 30
0.0
 10
107.239096
 20
12.667979
 30
0.0
  0
SPLINE
  5
301
100
AcDbEntity
  8
Contenu
 62
7
100
AcDbSpline
 70
8
 71
3
 72
8
 73
4
 74
0
 40
0
 40
0
 40
0
 40
0
 40
1
 40
1
 40
1
 40
1
 10
107.239096
 20
12.667979
 30
0.0
 10
108.021339
 20
12.665157
 30
0.0
 10
108.231513
 20
12.721573
 30
0.0
 10
108.765006
 20
13.072714
 30
0.0
  0
SPLINE
  5
302
100
AcDbEntity
  8
Contenu
 62
7
100
AcDbSpline
 70
8
 71
3
 72
8
 73
4
 74
0
 40
0
 40
0
 40
0
 40
0
 40
1
 40
1
 40
1
 40
1
 10
108.765006
 20
13.072714
 30
0.0
 10
109.483519
 20
13.545577
 30
0.0
 10
109.869257
 20
14.134575
 30
0.0
 10
110.407689
 20
15.580992
 30
0.0
  0
SPLINE
  5
303
100
AcDbEntity
  8
Contenu
 62
7
100
AcDbSpline
 70
8
 71
3
 72
8
 73
4
 74
0
 40
0
 40
0
 40
0
 40
0
 40
1
 40
1
 40
1
 40
1
 10
110.407689
 20
15.580992
 30
0.0
 10
110.677750
 20
16.306529
 30
0.0
 10
110.959747
 20
16.779477
 30
0.0
 10
111.337736
 20
17.140863
 30
0.0
  0
SPLINE
  5
304
100
AcDbEntity
  8
Contenu
 62
7
100
AcDbSpline
 70
8
 71
3
 72
8
 73
4
 74
0
 40
0
 40
0
 40
0
 40
0
 40
1
 40
1
 40
1
 40
1
 10
111.337736
 20
17.140863
 30
0.0
 10
111.948879
 20
17.725176
 30
0.0
 10
112.935703
 20
18.221548
 30
0.0
 10
113.486367
 20
18.221548
 30
0.0
  0
SPLINE
  5
305
100
AcDbEntity
  8
Contenu
 62
7
100
AcDbSpline
 70
8
 71
3
 72
8
 73
4
 74
0
 40
0
 40
0
 40
0
 40
0
 40
1
 40
1
 40
1
 40
1
 10
113.486367
 20
18.221548
 30
0.0
 10
113.797155
 20
18.221548
 30
0.0
 10
113.869212
 20
18.298058
 30
0.0
 10
113.953154
 20
18.717300
 30
0.0
  0
SPLINE
  5
306
100
AcDbEntity
  8
Contenu
 62
7
100
AcDbSpline
 70
8
 71
3
 72
8
 73
4
 74
0
 40
0
 40
0
 40
0
 40
0
 40
1
 40
1
 40
1
 40
1
 10
113.953154
 20
18.717300
 30
0.0
 10
114.194872
 20
19.924957
 30
0.0
 10
115.186171
 20
21.007138
 30
0.0
 10
116.442803
 20
21.435212
 30
0.0
  0
SPLINE
  5
307
100
AcDbEntity
  8
Contenu
 62
7
100
AcDbSpline
 70
8
 71
3
 72
8
 73
4
 74
0
 40
0
 40
0
 40
0
 40
0
 40
1
 40
1
 40
1
 40
1
 10
116.442803
 20
21.435212
 30
0.0
 10
116.882646
 20
21.585044
 30
0.0
 10
117.531763
 20
21.805883
 30
0.0
 10
117.885302
 20
21.926025
 30
0.0
  0
SPLINE
  5
308
100
AcDbEntity
  8
Contenu
 62
7
100
AcDbSpline
 70
8
 71
3
 72
8
 73
4
 74
0
 40
0
 40
0
 40
0
 40
0
 40
1
 40
1
 40
1
 40
1
 10
117.885302
 20
21.926025
 30
0.0
 10
118.567216
 20
22.157645
 30
0.0
 10
119.530232
 20
22.987040
 30
0.0
 10
119.751965
 20
23.533648
 30
0.0
  0
SPLINE
  5
309
100
AcDbEntity
  8
Contenu
 62
7
100
AcDbSpline
 70
8
 71
3
 72
8
 73
4
 74
0
 40
0
 40
0
 40
0
 40
0
 40
1
 40
1
 40
1
 40
1
 10
119.751965
 20
23.533648
 30
0.0
 10
119.825208
 20
23.714157
 30
0.0
 10
119.884486
 20
24.204349
 30
0.0
 10
119.883726
 20
24.622969
 30
0.0
  0
SPLINE
  5
30a
100
AcDbEntity
  8
Contenu
 62
7
100
AcDbSpline
 70
8
 71
3
 72
8
 73
4
 74
0
 40
0
 40
0
 40
0
 40
0
 40
1
 40
1
 40
1
 40
1
 10
119.883726
 20
24.622969
 30
0.0
 10
119.881751
 20
25.605949
 30
0.0
 10
119.554531
 20
26.258983
 30
0.0
 10
117.968733
 20
28.442903
 30
0.0
  0
SPLINE
  5
30b
100
AcDbEntity
  8
Contenu
 62
7
100
AcDbSpline
 70
8
 71
3
 72
8
 73
4
 74
0
 40
0
 40
0
 40
0
 40
0
 40
1
 40
1
 40
1
 40
1
 10
117.968733
 20
28.442903
 30
0.0
 10
117.282803
 20
29.387557
 30
0.0
 10
116.589984
 20
30.441319
 30
0.0
 10
116.429146
 20
30.784501
 30
0.0
  0
SPLINE
  5
30c
100
AcDbEntity
  8
Contenu
 62
7
100
AcDbSpline
 70
8
 71
3
 72
8
 73
4
 74
0
 40
0
 40
0
 40
0
 40
0
 40
1
 40
1
 40
1
 40
1
 10
116.429146
 20
30.784501
 30
0.0
 10
115.650935
 20
32.445322
 30
0.0
 10
116.395386
 20
34.383568
 30
0.0
 10
118.088257
 20
35.104172
 30
0.0
  0
SPLINE
  5
30d
100
AcDbEntity
  8
Contenu
 62
7
100
AcDbSpline
 70
8
 71
3
 72
8
 73
4
 74
0
 40
0
 40
0
 40
0
 40
0
 40
1
 40
1
 40
1
 40
1
 10
118.088257
 20
35.104172
 30
0.0
 10
119.090781
 20
35.530931
 30
0.0
 10
120.003400
 20
35.353219
 30
0.0
 10
120.506701
 20
34.633306
 30
0.0
  0
SPLINE
  5
30e
100
AcDbEntity
  8
Contenu
 62
7
100
AcDbSpline
 70
8
 71
3
 72
8
 73
4
 74
0
 40
0
 40
0
 40
0
 40
0
 40
1
 40
1
 40
1
 40
1
 10
120.506701
 20
34.633306
 30
0.0
 10
120.985818
 20
33.947930
 30
0.0
 10
120.626259
 20
32.680498
 30
0.0
 10
119.952707
 20
32.680498
 30
0.0
  0
SPLINE
  5
30f
100
AcDbEntity
  8
Contenu
 62
7
100
AcDbSpline
 70
8
 71
3
 72
8
 73
4
 74
0
 40
0
 40
0
 40
0
 40
0
 40
1
 40
1
 40
1
 40
1
 10
119.952707
 20
32.680498
 30
0.0
 10
119.758217
 20
32.680498
 30
0.0
 10
119.728832
 20
32.754892
 30
0.0
 10
119.807230
 20
33.048657
 30
0.0
  0
SPLINE
  5
310
100
AcDbEntity
  8
Contenu
 62
7
100
AcDbSpline
 70
8
 71
3
 72
8
 73
4
 74
0
 40
0
 40
0
 40
0
 40
0
 40
1
 40
1
 40
1
 40
1
 10
119.807230
 20
33.048657
 30
0.0
 10
120.084671
 20
34.088166
 30
0.0
 10
120.070256
 20
34.254903
 30
0.0
 10
119.682242
 20
34.493183
 30
0.0
  0
SPLINE
  5
311
100
AcDbEntity
  8
Contenu
 62
7
100
AcDbSpline
 70
8
 71
3
 72
8
 73
4
 74
0
 40
0
 40
0
 40
0
 40
0
 40
1
 40
1
 40
1
 40
1
 10
119.682242
 20
34.493183
 30
0.0
 10
118.870995
 20
34.991387
 30
0.0
 10
117.692166
 20
34.429965
 30
0.0
 10
117.077656
 20
33.252760
 30
0.0
  0
SPLINE
  5
312
100
AcDbEntity
  8
Contenu
 62
7
100
AcDbSpline
 70
8
 71
3
 72
8
 73
4
 74
0
 40
0
 40
0
 40
0
 40
0
 40
1
 40
1
 40
1
 40
1
 10
117.077656
 20
33.252760
 30
0.0
 10
116.467045
 20
32.083034
 30
0.0
 10
116.752522
 20
31.268060
 30
0.0
 10
118.695551
 20
28.634137
 30
0.0
  0
SPLINE
  5
313
100
AcDbEntity
  8
Contenu
 62
7
100
AcDbSpline
 70
8
 71
3
 72
8
 73
4
 74
0
 40
0
 40
0
 40
0
 40
0
 40
1
 40
1
 40
1
 40
1
 10
118.695551
 20
28.634137
 30
0.0
 10
119.995707
 20
26.871687
 30
0.0
 10
120.462045
 20
25.941257
 30
0.0
 10
120.561737
 20
24.910864
 30
0.0
  0
SPLINE
  5
314
100
AcDbEntity
  8
Contenu
 62
7
100
AcDbSpline
 70
8
 71
3
 72
8
 73
4
 74
0
 40
0
 40
0
 40
0
 40
0
 40
1
 40
1
 40
1
 40
1
 10
120.561737
 20
24.910864
 30
0.0
 10
120.738911
 20
23.079665
 30
0.0
 10
119.837555
 20
21.916796
 30
0.0
 10
117.671736
 20
21.182257
 30
0.0
  0
SPLINE
  5
315
100
AcDbEntity
  8
Contenu
 62
7
100
AcDbSpline
 70
8
 71
3
 72
8
 73
4
 74
0
 40
0
 40
0
 40
0
 40
0
 40
1
 40
1
 40
1
 40
1
 10
117.671736
 20
21.182257
 30
0.0
 10
115.665187
 20
20.501819
 30
0.0
 10
115.268913
 20
20.224790
 30
0.0
 10
114.801195
 20
19.175798
 30
0.0
  0
SPLINE
  5
316
100
AcDbEntity
  8
Contenu
 62
7
100
AcDbSpline
 70
8
 71
3
 72
8
 73
4
 74
0
 40
0
 40
0
 40
0
 40
0
 40
1
 40
1
 40
1
 40
1
 10
114.801195
 20
19.175798
 30
0.0
 10
114.492116
 20
18.482575
 30
0.0
 10
114.545400
 20
18.293797
 30
0.0
 10
115.103489
 20
18.104652
 30
0.0
  0
SPLINE
  5
317
100
AcDbEntity
  8
Contenu
 62
7
100
AcDbSpline
 70
8
 71
3
 72
8
 73
4
 74
0
 40
0
 40
0
 40
0
 40
0
 40
1
 40
1
 40
1
 40
1
 10
115.103489
 20
18.104652
 30
0.0
 10
115.644164
 20
17.921376
 30
0.0
 10
115.963730
 20
17.560668
 30
0.0
 10
116.163338
 20
16.908312
 30
0.0
  0
SPLINE
  5
318
100
AcDbEntity
  8
Contenu
 62
7
100
AcDbSpline
 70
8
 71
3
 72
8
 73
4
 74
0
 40
0
 40
0
 40
0
 40
0
 40
1
 40
1
 40
1
 40
1
 10
116.163338
 20
16.908312
 30
0.0
 10
116.348602
 20
16.302860
 30
0.0
 10
116.086232
 20
16.031983
 30
0.0
 10
115.426834
 20
16.147948
 30
0.0
  0
SPLINE
  5
319
100
AcDbEntity
  8
Contenu
 62
7
100
AcDbSpline
 70
8
 71
3
 72
8
 73
4
 74
0
 40
0
 40
0
 40
0
 40
0
 40
1
 40
1
 40
1
 40
1
 10
115.426834
 20
16.147948
 30
0.0
 10
114.809049
 20
16.256576
 30
0.0
 10
114.355075
 20
16.624481
 30
0.0
 10
114.081458
 20
17.238286
 30
0.0
  0
SPLINE
  5
31a
100
AcDbEntity
  8
Contenu
 62
7
100
AcDbSpline
 70
8
 71
3
 72
8
 73
4
 74
0
 40
0
 40
0
 40
0
 40
0
 40
1
 40
1
 40
1
 40
1
 10
114.081458
 20
17.238286
 30
0.0
 10
113.904462
 20
17.635260
 30
0.0
 10
113.833057
 20
17.679540
 30
0.0
 10
113.490115
 20
17.605118
 30
0.0
  0
SPLINE
  5
31b
100
AcDbEntity
  8
Contenu
 62
7
100
AcDbSpline
 70
8
 71
3
 72
8
 73
4
 74
0
 40
0
 40
0
 40
0
 40
0
 40
1
 40
1
 40
1
 40
1
 10
113.490115
 20
17.605118
 30
0.0
 10
112.794273
 20
17.454045
 30
0.0
 10
111.943461
 20
16.910485
 30
0.0
 10
111.565940
 20
16.375786
 30
0.0
  0
SPLINE
  5
31c
100
AcDbEntity
  8
Contenu
 62
7
100
AcDbSpline
 70
8
 71
3
 72
8
 73
4
 74
0
 40
0
 40
0
 40
0
 40
0
 40
1
 40
1
 40
1
 40
1
 10
111.565940
 20
16.375786
 30
0.0
 10
111.363011
 20
16.088371
 30
0.0
 10
111.062775
 20
15.430906
 30
0.0
 10
110.898756
 20
14.914722
 30
0.0
  0
SPLINE
  5
31d
100
AcDbEntity
  8
Contenu
 62
7
100
AcDbSpline
 70
8
 71
3
 72
8
 73
4
 74
0
 40
0
 40
0
 40
0
 40
0
 40
1
 40
1
 40
1
 40
1
 10
110.898756
 20
14.914722
 30
0.0
 10
110.400202
 20
13.345736
 30
0.0
 10
109.418035
 20
12.393716
 30
0.0
 10
107.937390
 20
12.044268
 30
0.0
  0
SPLINE
  5
31e
100
AcDbEntity
  8
Contenu
 62
7
100
AcDbSpline
 70
8
 71
3
 72
8
 73
4
 74
0
 40
0
 40
0
 40
0
 40
0
 40
1
 40
1
 40
1
 40
1
 10
107.937390
 20
12.044268
 30
0.0
 10
106.696484
 20
11.751462
 30
0.0
 10
105.089065
 20
12.300893
 30
0.0
 10
102.958168
 20
13.746407
 30
0.0
  0
SPLINE
  5
31f
100
AcDbEntity
  8
Contenu
 62
7
100
AcDbSpline
 70
8
 71
3
 72
8
 73
4
 74
0
 40
0
 40
0
 40
0
 40
0
 40
1
 40
1
 40
1
 40
1
 10
102.958168
 20
13.746407
 30
0.0
 10
102.329659
 20
14.172788
 30
0.0
 10
101.333325
 20
14.757722
 30
0.0
 10
100.744095
 20
15.046379
 30
0.0
  0
SPLINE
  5
320
100
AcDbEntity
  8
Contenu
 62
7
100
AcDbSpline
 70
8
 71
3
 72
8
 73
4
 74
0
 40
0
 40
0
 40
0
 40
0
 40
1
 40
1
 40
1
 40
1
 10
100.744095
 20
15.046379
 30
0.0
 10
99.786583
 20
15.515432
 30
0.0
 10
99.586756
 20
15.565385
 30
0.0
 10
98.862983
 20
15.516307
 30
0.0
  0
SPLINE
  5
321
100
AcDbEntity
  8
Contenu
 62
7
100
AcDbSpline
 70
8
 71
3
 72
8
 73
4
 74
0
 40
0
 40
0
 40
0
 40
0
 40
1
 40
1
 40
1
 40
1
 10
98.862983
 20
15.516307
 30
0.0
 10
97.511042
 20
15.424726
 30
0.0
 10
96.458808
 20
14.534174
 30
0.0
 10
96.458808
 20
13.481598
 30
0.0
  0
SPLINE
  5
322
100
AcDbEntity
  8
Contenu
 62
7
100
AcDbSpline
 70
8
 71
3
 72
8
 73
4
 74
0
 40
0
 40
0
 40
0
 40
0
 40
1
 40
1
 40
1
 40
1
 10
96.458808
 20
13.481598
 30
0.0
 10
96.458808
 20
13.178688
 30
0.0
 10
96.564734
 20
12.900925
 30
0.0
 10
96.744499
 20
12.732439
 30
0.0
  0
SPLINE
  5
323
100
AcDbEntity
  8
Contenu
 62
7
100
AcDbSpline
 70
8
 71
3
 72
8
 73
4
 74
0
 40
0
 40
0
 40
0
 40
0
 40
1
 40
1
 40
1
 40
1
 10
96.744499
 20
12.732439
 30
0.0
 10
97.088299
 20
12.410226
 30
0.0
 10
97.203573
 20
12.403396
 30
0.0
 10
97.758625
 20
12.672382
 30
0.0
  0
SPLINE
  5
324
100
AcDbEntity
  8
Contenu
 62
7
100
AcDbSpline
 70
8
 71
3
 72
8
 73
4
 74
0
 40
0
 40
0
 40
0
 40
0
 40
1
 40
1
 40
1
 40
1
 10
97.758625
 20
12.672382
 30
0.0
 10
97.994345
 20
12.786654
 30
0.0
 10
98.312503
 20
12.842844
 30
0.0
 10
98.465642
 20
12.797265
 30
0.0
  0
SPLINE
  5
325
100
AcDbEntity
  8
Contenu
 62
7
100
AcDbSpline
 70
8
 71
3
 72
8
 73
4
 74
0
 40
0
 40
0
 40
0
 40
0
 40
1
 40
1
 40
1
 40
1
 10
98.465642
 20
12.797265
 30
0.0
 10
98.883176
 20
12.673116
 30
0.0
 10
98.591028
 20
12.275662
 30
0.0
 10
97.888506
 20
12.012208
 30
0.0
  0
SPLINE
  5
326
100
AcDbEntity
  8
Contenu
 62
7
100
AcDbSpline
 70
8
 71
3
 72
8
 73
4
 74
0
 40
0
 40
0
 40
0
 40
0
 40
1
 40
1
 40
1
 40
1
 10
97.888506
 20
12.012208
 30
0.0
 10
97.202890
 20
11.755103
 30
0.0
 10
97.224996
 20
11.755470
 30
0.0
 10
96.646604
 20
11.991323
 30
0.0
  0
LINE
  5
327
100
AcDbEntity
  8
Contenu
 62
7
100
AcDbLine
 10
96.646604
 20
11.991323
 30
0.0
 11
96.646604
 21
11.991238
 31
0.0
  0
SPLINE
  5
328
100
AcDbEntity
  8
Contenu
 62
7
100
AcDbSpline
 70
8
 71
3
 72
8
 73
4
 74
0
 40
0
 40
0
 40
0
 40
0
 40
1
 40
1
 40
1
 40
1
 10
115.303675
 20
17.229198
 30
0.0
 10
115.064621
 20
17.499172
 30
0.0
 10
114.599906
 20
17.727574
 30
0.0
 10
114.599906
 20
17.575062
 30
0.0
  0
SPLINE
  5
329
100
AcDbEntity
  8
Contenu
 62
7
100
AcDbSpline
 70
8
 71
3
 72
8
 73
4
 74
0
 40
0
 40
0
 40
0
 40
0
 40
1
 40
1
 40
1
 40
1
 10
114.599906
 20
17.575062
 30
0.0
 10
114.599906
 20
17.368447
 30
0.0
 10
115.374162
 20
16.716796
 30
0.0
 10
115.430703
 20
16.875771
 30
0.0
  0
SPLINE
  5
32a
100
AcDbEntity
  8
Contenu
 62
7
100
AcDbSpline
 70
8
 71
3
 72
8
 73
4
 74
0
 40
0
 40
0
 40
0
 40
0
 40
1
 40
1
 40
1
 40
1
 10
115.430703
 20
16.875771
 30
0.0
 10
115.460000
 20
16.958180
 30
0.0
 10
115.402819
 20
17.117241
 30
0.0
 10
115.303675
 20
17.229198
 30
0.0
  0
LINE
  5
32b
100
AcDbEntity
  8
Contenu
 62
7
100
AcDbLine
 10
115.303675
 20
17.229198
 30
0.0
 11
115.303675
 21
17.229198
 31
0.0
  0
SPLINE
  5
32c
100
AcDbEntity
  8
Contenu
 62
7
100
AcDbSpline
 70
8
 71
3
 72
8
 73
4
 74
0
 40
0
 40
0
 40
0
 40
0
 40
1
 40
1
 40
1
 40
1
 10
34.071954
 20
12.863700
 30
0.0
 10
33.644591
 20
13.044802
 30
0.0
 10
33.464872
 20
13.202198
 30
0.0
 10
33.464872
 20
13.395266
 30
0.0
  0
SPLINE
  5
32d
100
AcDbEntity
  8
Contenu
 62
7
100
AcDbSpline
 70
8
 71
3
 72
8
 73
4
 74
0
 40
0
 40
0
 40
0
 40
0
 40
1
 40
1
 40
1
 40
1
 10
33.464872
 20
13.395266
 30
0.0
 10
33.464872
 20
13.726171
 30
0.0
 10
33.695360
 20
13.741694
 30
0.0
 10
34.313974
 20
13.452444
 30
0.0
  0
SPLINE
  5
32e
100
AcDbEntity
  8
Contenu
 62
7
100
AcDbSpline
 70
8
 71
3
 72
8
 73
4
 74
0
 40
0
 40
0
 40
0
 40
0
 40
1
 40
1
 40
1
 40
1
 10
34.313974
 20
13.452444
 30
0.0
 10
34.752516
 20
13.247410
 30
0.0
 10
34.799597
 20
13.249978
 30
0.0
 10
35.157268
 20
13.499152
 30
0.0
  0
SPLINE
  5
32f
100
AcDbEntity
  8
Contenu
 62
7
100
AcDbSpline
 70
8
 71
3
 72
8
 73
4
 74
0
 40
0
 40
0
 40
0
 40
0
 40
1
 40
1
 40
1
 40
1
 10
35.157268
 20
13.499152
 30
0.0
 10
35.900489
 20
14.016832
 30
0.0
 10
35.607376
 20
15.229259
 30
0.0
 10
34.577254
 20
15.898351
 30
0.0
  0
SPLINE
  5
330
100
AcDbEntity
  8
Contenu
 62
7
100
AcDbSpline
 70
8
 71
3
 72
8
 73
4
 74
0
 40
0
 40
0
 40
0
 40
0
 40
1
 40
1
 40
1
 40
1
 10
34.577254
 20
15.898351
 30
0.0
 10
33.698230
 20
16.469258
 30
0.0
 10
32.617279
 20
16.493332
 30
0.0
 10
31.447319
 20
15.968004
 30
0.0
  0
SPLINE
  5
331
100
AcDbEntity
  8
Contenu
 62
7
100
AcDbSpline
 70
8
 71
3
 72
8
 73
4
 74
0
 40
0
 40
0
 40
0
 40
0
 40
1
 40
1
 40
1
 40
1
 10
31.447319
 20
15.968004
 30
0.0
 10
30.946411
 20
15.743101
 30
0.0
 10
29.958069
 20
15.161666
 30
0.0
 10
29.250992
 20
14.675962
 30
0.0
  0
SPLINE
  5
332
100
AcDbEntity
  8
Contenu
 62
7
100
AcDbSpline
 70
8
 71
3
 72
8
 73
4
 74
0
 40
0
 40
0
 40
0
 40
0
 40
1
 40
1
 40
1
 40
1
 10
29.250992
 20
14.675962
 30
0.0
 10
28.543921
 20
14.190229
 30
0.0
 10
27.548941
 20
13.599425
 30
0.0
 10
27.039926
 20
13.363064
 30
0.0
  0
SPLINE
  5
333
100
AcDbEntity
  8
Contenu
 62
7
100
AcDbSpline
 70
8
 71
3
 72
8
 73
4
 74
0
 40
0
 40
0
 40
0
 40
0
 40
1
 40
1
 40
1
 40
1
 10
27.039926
 20
13.363064
 30
0.0
 10
26.202909
 20
12.974360
 30
0.0
 10
25.990266
 20
12.933296
 30
0.0
 10
24.815424
 20
12.933296
 30
0.0
  0
SPLINE
  5
334
100
AcDbEntity
  8
Contenu
 62
7
100
AcDbSpline
 70
8
 71
3
 72
8
 73
4
 74
0
 40
0
 40
0
 40
0
 40
0
 40
1
 40
1
 40
1
 40
1
 10
24.815424
 20
12.933296
 30
0.0
 10
23.635244
 20
12.933296
 30
0.0
 10
23.461718
 20
12.967191
 30
0.0
 10
22.918643
 20
13.304023
 30
0.0
  0
SPLINE
  5
335
100
AcDbEntity
  8
Contenu
 62
7
100
AcDbSpline
 70
8
 71
3
 72
8
 73
4
 74
0
 40
0
 40
0
 40
0
 40
0
 40
1
 40
1
 40
1
 40
1
 10
22.918643
 20
13.304023
 30
0.0
 10
22.095138
 20
13.814789
 30
0.0
 10
21.549893
 20
14.570637
 30
0.0
 10
21.108134
 20
15.813882
 30
0.0
  0
SPLINE
  5
336
100
AcDbEntity
  8
Contenu
 62
7
100
AcDbSpline
 70
8
 71
3
 72
8
 73
4
 74
0
 40
0
 40
0
 40
0
 40
0
 40
1
 40
1
 40
1
 40
1
 10
21.108134
 20
15.813882
 30
0.0
 10
20.901949
 20
16.394131
 30
0.0
 10
20.590312
 20
17.067852
 30
0.0
 10
20.415613
 20
17.310930
 30
0.0
  0
SPLINE
  5
337
100
AcDbEntity
  8
Contenu
 62
7
100
AcDbSpline
 70
8
 71
3
 72
8
 73
4
 74
0
 40
0
 40
0
 40
0
 40
0
 40
1
 40
1
 40
1
 40
1
 10
20.415613
 20
17.310930
 30
0.0
 10
20.070006
 20
17.791836
 30
0.0
 10
19.235979
 20
18.274888
 30
0.0
 10
18.502032
 20
18.419216
 30
0.0
  0
SPLINE
  5
338
100
AcDbEntity
  8
Contenu
 62
7
100
AcDbSpline
 70
8
 71
3
 72
8
 73
4
 74
0
 40
0
 40
0
 40
0
 40
0
 40
1
 40
1
 40
1
 40
1
 10
18.502032
 20
18.419216
 30
0.0
 10
18.100374
 20
18.498210
 30
0.0
 10
18.037789
 20
18.474391
 30
0.0
 10
18.037789
 20
18.242432
 30
0.0
  0
SPLINE
  5
339
100
AcDbEntity
  8
Contenu
 62
7
100
AcDbSpline
 70
8
 71
3
 72
8
 73
4
 74
0
 40
0
 40
0
 40
0
 40
0
 40
1
 40
1
 40
1
 40
1
 10
18.037789
 20
18.242432
 30
0.0
 10
18.037789
 20
17.505381
 30
0.0
 10
16.437007
 20
16.585252
 30
0.0
 10
15.949568
 20
17.042057
 30
0.0
  0
SPLINE
  5
33a
100
AcDbEntity
  8
Contenu
 62
7
100
AcDbSpline
 70
8
 71
3
 72
8
 73
4
 74
0
 40
0
 40
0
 40
0
 40
0
 40
1
 40
1
 40
1
 40
1
 10
15.949568
 20
17.042057
 30
0.0
 10
15.768783
 20
17.211503
 30
0.0
 10
15.758010
 20
17.342567
 30
0.0
 10
15.887744
 20
17.794151
 30
0.0
  0
SPLINE
  5
33b
100
AcDbEntity
  8
Contenu
 62
7
100
AcDbSpline
 70
8
 71
3
 72
8
 73
4
 74
0
 40
0
 40
0
 40
0
 40
0
 40
1
 40
1
 40
1
 40
1
 10
15.887744
 20
17.794151
 30
0.0
 10
16.052193
 20
18.366554
 30
0.0
 10
16.554064
 20
18.839191
 30
0.0
 10
17.144929
 20
18.978158
 30
0.0
  0
SPLINE
  5
33c
100
AcDbEntity
  8
Contenu
 62
7
100
AcDbSpline
 70
8
 71
3
 72
8
 73
4
 74
0
 40
0
 40
0
 40
0
 40
0
 40
1
 40
1
 40
1
 40
1
 10
17.144929
 20
18.978158
 30
0.0
 10
17.455571
 20
19.051253
 30
0.0
 10
17.481371
 20
19.108911
 30
0.0
 10
17.395502
 20
19.537945
 30
0.0
  0
SPLINE
  5
33d
100
AcDbEntity
  8
Contenu
 62
7
100
AcDbSpline
 70
8
 71
3
 72
8
 73
4
 74
0
 40
0
 40
0
 40
0
 40
0
 40
1
 40
1
 40
1
 40
1
 10
17.395502
 20
19.537945
 30
0.0
 10
17.267017
 20
20.179832
 30
0.0
 10
16.568304
 20
21.064175
 30
0.0
 10
15.921922
 20
21.403152
 30
0.0
  0
SPLINE
  5
33e
100
AcDbEntity
  8
Contenu
 62
7
100
AcDbSpline
 70
8
 71
3
 72
8
 73
4
 74
0
 40
0
 40
0
 40
0
 40
0
 40
1
 40
1
 40
1
 40
1
 10
15.921922
 20
21.403152
 30
0.0
 10
15.632218
 20
21.555044
 30
0.0
 10
14.977371
 20
21.805432
 30
0.0
 10
14.466706
 20
21.959610
 30
0.0
  0
SPLINE
  5
33f
100
AcDbEntity
  8
Contenu
 62
7
100
AcDbSpline
 70
8
 71
3
 72
8
 73
4
 74
0
 40
0
 40
0
 40
0
 40
0
 40
1
 40
1
 40
1
 40
1
 10
14.466706
 20
21.959610
 30
0.0
 10
13.211424
 20
22.338465
 30
0.0
 10
12.710760
 20
22.646990
 30
0.0
 10
12.122021
 20
23.404418
 30
0.0
  0
SPLINE
  5
340
100
AcDbEntity
  8
Contenu
 62
7
100
AcDbSpline
 70
8
 71
3
 72
8
 73
4
 74
0
 40
0
 40
0
 40
0
 40
0
 40
1
 40
1
 40
1
 40
1
 10
12.122021
 20
23.404418
 30
0.0
 10
11.447473
 20
24.272195
 30
0.0
 10
11.241497
 20
25.104130
 30
0.0
 10
11.474419
 20
26.019997
 30
0.0
  0
SPLINE
  5
341
100
AcDbEntity
  8
Contenu
 62
7
100
AcDbSpline
 70
8
 71
3
 72
8
 73
4
 74
0
 40
0
 40
0
 40
0
 40
0
 40
1
 40
1
 40
1
 40
1
 10
11.474419
 20
26.019997
 30
0.0
 10
11.757220
 20
27.131981
 30
0.0
 10
12.057980
 20
27.680988
 30
0.0
 10
13.386796
 20
29.510945
 30
0.0
  0
SPLINE
  5
342
100
AcDbEntity
  8
Contenu
 62
7
100
AcDbSpline
 70
8
 71
3
 72
8
 73
4
 74
0
 40
0
 40
0
 40
0
 40
0
 40
1
 40
1
 40
1
 40
1
 10
13.386796
 20
29.510945
 30
0.0
 10
14.878170
 20
31.564817
 30
0.0
 10
15.173647
 20
32.139619
 30
0.0
 10
15.177784
 20
32.994950
 30
0.0
  0
SPLINE
  5
343
100
AcDbEntity
  8
Contenu
 62
7
100
AcDbSpline
 70
8
 71
3
 72
8
 73
4
 74
0
 40
0
 40
0
 40
0
 40
0
 40
1
 40
1
 40
1
 40
1
 10
15.177784
 20
32.994950
 30
0.0
 10
15.186279
 20
34.740562
 30
0.0
 10
13.288724
 20
36.140509
 30
0.0
 10
12.242872
 20
35.160289
 30
0.0
  0
SPLINE
  5
344
100
AcDbEntity
  8
Contenu
 62
7
100
AcDbSpline
 70
8
 71
3
 72
8
 73
4
 74
0
 40
0
 40
0
 40
0
 40
0
 40
1
 40
1
 40
1
 40
1
 10
12.242872
 20
35.160289
 30
0.0
 10
11.897713
 20
34.836775
 30
0.0
 10
11.894589
 20
34.816175
 30
0.0
 10
12.116351
 20
34.323539
 30
0.0
  0
SPLINE
  5
345
100
AcDbEntity
  8
Contenu
 62
7
100
AcDbSpline
 70
8
 71
3
 72
8
 73
4
 74
0
 40
0
 40
0
 40
0
 40
0
 40
1
 40
1
 40
1
 40
1
 10
12.116351
 20
34.323539
 30
0.0
 10
12.436067
 20
33.613271
 30
0.0
 10
12.433955
 20
33.562612
 30
0.0
 10
12.082323
 20
33.512122
 30
0.0
  0
SPLINE
  5
346
100
AcDbEntity
  8
Contenu
 62
7
100
AcDbSpline
 70
8
 71
3
 72
8
 73
4
 74
0
 40
0
 40
0
 40
0
 40
0
 40
1
 40
1
 40
1
 40
1
 10
12.082323
 20
33.512122
 30
0.0
 10
11.683610
 20
33.454888
 30
0.0
 10
11.324151
 20
34.061157
 30
0.0
 10
11.324151
 20
34.790871
 30
0.0
  0
SPLINE
  5
347
100
AcDbEntity
  8
Contenu
 62
7
100
AcDbSpline
 70
8
 71
3
 72
8
 73
4
 74
0
 40
0
 40
0
 40
0
 40
0
 40
1
 40
1
 40
1
 40
1
 10
11.324151
 20
34.790871
 30
0.0
 10
11.324151
 20
35.706891
 30
0.0
 10
12.339232
 20
36.314064
 30
0.0
 10
13.522750
 20
36.105967
 30
0.0
  0
SPLINE
  5
348
100
AcDbEntity
  8
Contenu
 62
7
100
AcDbSpline
 70
8
 71
3
 72
8
 73
4
 74
0
 40
0
 40
0
 40
0
 40
0
 40
1
 40
1
 40
1
 40
1
 10
13.522750
 20
36.105967
 30
0.0
 10
14.227905
 20
35.981993
 30
0.0
 10
15.361902
 20
34.984278
 30
0.0
 10
15.677231
 20
34.210425
 30
0.0
  0
SPLINE
  5
349
100
AcDbEntity
  8
Contenu
 62
7
100
AcDbSpline
 70
8
 71
3
 72
8
 73
4
 74
0
 40
0
 40
0
 40
0
 40
0
 40
1
 40
1
 40
1
 40
1
 10
15.677231
 20
34.210425
 30
0.0
 10
16.233902
 20
32.844300
 30
0.0
 10
15.784227
 20
31.467930
 30
0.0
 10
14.055899
 20
29.247829
 30
0.0
  0
SPLINE
  5
34a
100
AcDbEntity
  8
Contenu
 62
7
100
AcDbSpline
 70
8
 71
3
 72
8
 73
4
 74
0
 40
0
 40
0
 40
0
 40
0
 40
1
 40
1
 40
1
 40
1
 10
14.055899
 20
29.247829
 30
0.0
 10
13.653333
 20
28.730657
 30
0.0
 10
13.323960
 20
28.237135
 30
0.0
 10
13.323960
 20
28.151142
 30
0.0
  0
SPLINE
  5
34b
100
AcDbEntity
  8
Contenu
 62
7
100
AcDbSpline
 70
8
 71
3
 72
8
 73
4
 74
0
 40
0
 40
0
 40
0
 40
0
 40
1
 40
1
 40
1
 40
1
 10
13.323960
 20
28.151142
 30
0.0
 10
13.323960
 20
28.065120
 30
0.0
 10
13.262967
 20
27.994734
 30
0.0
 10
13.188407
 20
27.994734
 30
0.0
  0
SPLINE
  5
34c
100
AcDbEntity
  8
Contenu
 62
7
100
AcDbSpline
 70
8
 71
3
 72
8
 73
4
 74
0
 40
0
 40
0
 40
0
 40
0
 40
1
 40
1
 40
1
 40
1
 10
13.188407
 20
27.994734
 30
0.0
 10
13.113860
 20
27.994734
 30
0.0
 10
12.845432
 20
27.588052
 30
0.0
 10
12.591917
 20
27.091030
 30
0.0
  0
SPLINE
  5
34d
100
AcDbEntity
  8
Contenu
 62
7
100
AcDbSpline
 70
8
 71
3
 72
8
 73
4
 74
0
 40
0
 40
0
 40
0
 40
0
 40
1
 40
1
 40
1
 40
1
 10
12.591917
 20
27.091030
 30
0.0
 10
12.046508
 20
26.021775
 30
0.0
 10
11.957617
 20
24.866668
 30
0.0
 10
12.365719
 20
24.151460
 30
0.0
  0
SPLINE
  5
34e
100
AcDbEntity
  8
Contenu
 62
7
100
AcDbSpline
 70
8
 71
3
 72
8
 73
4
 74
0
 40
0
 40
0
 40
0
 40
0
 40
1
 40
1
 40
1
 40
1
 10
12.365719
 20
24.151460
 30
0.0
 10
12.736083
 20
23.502377
 30
0.0
 10
13.785150
 20
22.829785
 30
0.0
 10
15.036353
 20
22.439246
 30
0.0
  0
SPLINE
  5
34f
100
AcDbEntity
  8
Contenu
 62
7
100
AcDbSpline
 70
8
 71
3
 72
8
 73
4
 74
0
 40
0
 40
0
 40
0
 40
0
 40
1
 40
1
 40
1
 40
1
 10
15.036353
 20
22.439246
 30
0.0
 10
16.756366
 20
21.902375
 30
0.0
 10
17.790673
 20
20.908896
 30
0.0
 10
18.030082
 20
19.563740
 30
0.0
  0
SPLINE
  5
350
100
AcDbEntity
  8
Contenu
 62
7
100
AcDbSpline
 70
8
 71
3
 72
8
 73
4
 74
0
 40
0
 40
0
 40
0
 40
0
 40
1
 40
1
 40
1
 40
1
 10
18.030082
 20
19.563740
 30
0.0
 10
18.105998
 20
19.137246
 30
0.0
 10
18.164177
 20
19.090341
 30
0.0
 10
18.730403
 20
18.999776
 30
0.0
  0
SPLINE
  5
351
100
AcDbEntity
  8
Contenu
 62
7
100
AcDbSpline
 70
8
 71
3
 72
8
 73
4
 74
0
 40
0
 40
0
 40
0
 40
0
 40
1
 40
1
 40
1
 40
1
 10
18.730403
 20
18.999776
 30
0.0
 10
19.543672
 20
18.869615
 30
0.0
 10
20.527759
 20
18.277428
 30
0.0
 10
20.972552
 20
17.650387
 30
0.0
  0
SPLINE
  5
352
100
AcDbEntity
  8
Contenu
 62
7
100
AcDbSpline
 70
8
 71
3
 72
8
 73
4
 74
0
 40
0
 40
0
 40
0
 40
0
 40
1
 40
1
 40
1
 40
1
 10
20.972552
 20
17.650387
 30
0.0
 10
21.169273
 20
17.373132
 30
0.0
 10
21.530445
 20
16.627642
 30
0.0
 10
21.775155
 20
15.993770
 30
0.0
  0
SPLINE
  5
353
100
AcDbEntity
  8
Contenu
 62
7
100
AcDbSpline
 70
8
 71
3
 72
8
 73
4
 74
0
 40
0
 40
0
 40
0
 40
0
 40
1
 40
1
 40
1
 40
1
 10
21.775155
 20
15.993770
 30
0.0
 10
22.488611
 20
14.145779
 30
0.0
 10
23.290527
 20
13.490854
 30
0.0
 10
24.843994
 20
13.487440
 30
0.0
  0
SPLINE
  5
354
100
AcDbEntity
  8
Contenu
 62
7
100
AcDbSpline
 70
8
 71
3
 72
8
 73
4
 74
0
 40
0
 40
0
 40
0
 40
0
 40
1
 40
1
 40
1
 40
1
 10
24.843994
 20
13.487440
 30
0.0
 10
25.934929
 20
13.484617
 30
0.0
 10
26.921366
 20
13.912946
 30
0.0
 10
28.937601
 20
15.263012
 30
0.0
  0
SPLINE
  5
355
100
AcDbEntity
  8
Contenu
 62
7
100
AcDbSpline
 70
8
 71
3
 72
8
 73
4
 74
0
 40
0
 40
0
 40
0
 40
0
 40
1
 40
1
 40
1
 40
1
 10
28.937601
 20
15.263012
 30
0.0
 10
30.713380
 20
16.452099
 30
0.0
 10
31.740356
 20
16.914351
 30
0.0
 10
32.771235
 20
16.988632
 30
0.0
  0
SPLINE
  5
356
100
AcDbEntity
  8
Contenu
 62
7
100
AcDbSpline
 70
8
 71
3
 72
8
 73
4
 74
0
 40
0
 40
0
 40
0
 40
0
 40
1
 40
1
 40
1
 40
1
 10
32.771235
 20
16.988632
 30
0.0
 10
33.792478
 20
17.062207
 30
0.0
 10
34.492172
 20
16.845630
 30
0.0
 10
35.219989
 20
16.230611
 30
0.0
  0
SPLINE
  5
357
100
AcDbEntity
  8
Contenu
 62
7
100
AcDbSpline
 70
8
 71
3
 72
8
 73
4
 74
0
 40
0
 40
0
 40
0
 40
0
 40
1
 40
1
 40
1
 40
1
 10
35.219989
 20
16.230611
 30
0.0
 10
36.222841
 20
15.383239
 30
0.0
 10
36.585005
 20
14.195563
 30
0.0
 10
36.083279
 20
13.399527
 30
0.0
  0
SPLINE
  5
358
100
AcDbEntity
  8
Contenu
 62
7
100
AcDbSpline
 70
8
 71
3
 72
8
 73
4
 74
0
 40
0
 40
0
 40
0
 40
0
 40
1
 40
1
 40
1
 40
1
 10
36.083279
 20
13.399527
 30
0.0
 10
35.650511
 20
12.712852
 30
0.0
 10
34.899797
 20
12.512898
 30
0.0
 10
34.071954
 20
12.863700
 30
0.0
  0
LINE
  5
359
100
AcDbEntity
  8
Contenu
 62
7
100
AcDbLine
 10
34.071954
 20
12.863700
 30
0.0
 11
34.071954
 21
12.863700
 31
0.0
  0
SPLINE
  5
35a
100
AcDbEntity
  8
Contenu
 62
7
100
AcDbSpline
 70
8
 71
3
 72
8
 73
4
 74
0
 40
0
 40
0
 40
0
 40
0
 40
1
 40
1
 40
1
 40
1
 10
16.980793
 20
17.788450
 30
0.0
 10
17.067229
 20
17.842552
 30
0.0
 10
17.216723
 20
18.026928
 30
0.0
 10
17.312995
 20
18.198152
 30
0.0
  0
SPLINE
  5
35b
100
AcDbEntity
  8
Contenu
 62
7
100
AcDbSpline
 70
8
 71
3
 72
8
 73
4
 74
0
 40
0
 40
0
 40
0
 40
0
 40
1
 40
1
 40
1
 40
1
 10
17.312995
 20
18.198152
 30
0.0
 10
17.472041
 20
18.481080
 30
0.0
 10
17.464066
 20
18.497505
 30
0.0
 10
17.225650
 20
18.377899
 30
0.0
  0
SPLINE
  5
35c
100
AcDbEntity
  8
Contenu
 62
7
100
AcDbSpline
 70
8
 71
3
 72
8
 73
4
 74
0
 40
0
 40
0
 40
0
 40
0
 40
1
 40
1
 40
1
 40
1
 10
17.225650
 20
18.377899
 30
0.0
 10
16.803191
 20
18.166035
 30
0.0
 10
16.383457
 20
17.685580
 30
0.0
 10
16.622928
 20
17.688035
 30
0.0
  0
SPLINE
  5
35d
100
AcDbEntity
  8
Contenu
 62
7
100
AcDbSpline
 70
8
 71
3
 72
8
 73
4
 74
0
 40
0
 40
0
 40
0
 40
0
 40
1
 40
1
 40
1
 40
1
 10
16.622928
 20
17.688035
 30
0.0
 10
16.733303
 20
17.690857
 30
0.0
 10
16.894344
 20
17.734320
 30
0.0
 10
16.980793
 20
17.788450
 30
0.0
  0
LINE
  5
35e
100
AcDbEntity
  8
Contenu
 62
7
100
AcDbLine
 10
16.980793
 20
17.788450
 30
0.0
 11
16.980793
 21
17.788450
 31
0.0
  0
SPLINE
  5
35f
100
AcDbEntity
  8
Contenu
 62
7
100
AcDbSpline
 70
8
 71
3
 72
8
 73
4
 74
0
 40
0
 40
0
 40
0
 40
0
 40
1
 40
1
 40
1
 40
1
 10
12.666880
 20
125.512514
 30
0.0
 10
12.076236
 20
126.066093
 30
0.0
 10
12.000381
 20
126.813951
 30
0.0
 10
12.477269
 20
127.382154
 30
0.0
  0
SPLINE
  5
360
100
AcDbEntity
  8
Contenu
 62
7
100
AcDbSpline
 70
8
 71
3
 72
8
 73
4
 74
0
 40
0
 40
0
 40
0
 40
0
 40
1
 40
1
 40
1
 40
1
 10
12.477269
 20
127.382154
 30
0.0
 10
13.047216
 20
128.061254
 30
0.0
 10
13.422237
 20
127.665604
 30
0.0
 10
12.974795
 20
126.857280
 30
0.0
  0
SPLINE
  5
361
100
AcDbEntity
  8
Contenu
 62
7
100
AcDbSpline
 70
8
 71
3
 72
8
 73
4
 74
0
 40
0
 40
0
 40
0
 40
0
 40
1
 40
1
 40
1
 40
1
 10
12.974795
 20
126.857280
 30
0.0
 10
12.616526
 20
126.210046
 30
0.0
 10
13.148930
 20
125.651503
 30
0.0
 10
14.019771
 20
125.760980
 30
0.0
  0
SPLINE
  5
362
100
AcDbEntity
  8
Contenu
 62
7
100
AcDbSpline
 70
8
 71
3
 72
8
 73
4
 74
0
 40
0
 40
0
 40
0
 40
0
 40
1
 40
1
 40
1
 40
1
 10
14.019771
 20
125.760980
 30
0.0
 10
15.669953
 20
125.968421
 30
0.0
 10
16.549615
 20
127.767594
 30
0.0
 10
15.785923
 20
129.373255
 30
0.0
  0
SPLINE
  5
363
100
AcDbEntity
  8
Contenu
 62
7
100
AcDbSpline
 70
8
 71
3
 72
8
 73
4
 74
0
 40
0
 40
0
 40
0
 40
0
 40
1
 40
1
 40
1
 40
1
 10
15.785923
 20
129.373255
 30
0.0
 10
15.452966
 20
130.073287
 30
0.0
 10
14.648206
 20
131.252824
 30
0.0
 10
14.190124
 20
131.712225
 30
0.0
  0
SPLINE
  5
364
100
AcDbEntity
  8
Contenu
 62
7
100
AcDbSpline
 70
8
 71
3
 72
8
 73
4
 74
0
 40
0
 40
0
 40
0
 40
0
 40
1
 40
1
 40
1
 40
1
 10
14.190124
 20
131.712225
 30
0.0
 10
14.027983
 20
131.874824
 30
0.0
 10
13.895333
 20
132.038471
 30
0.0
 10
13.895333
 20
132.075880
 30
0.0
  0
SPLINE
  5
365
100
AcDbEntity
  8
Contenu
 62
7
100
AcDbSpline
 70
8
 71
3
 72
8
 73
4
 74
0
 40
0
 40
0
 40
0
 40
0
 40
1
 40
1
 40
1
 40
1
 10
13.895333
 20
132.075880
 30
0.0
 10
13.895333
 20
132.113288
 30
0.0
 10
13.637352
 20
132.518009
 30
0.0
 10
13.322024
 20
132.975243
 30
0.0
  0
SPLINE
  5
366
100
AcDbEntity
  8
Contenu
 62
7
100
AcDbSpline
 70
8
 71
3
 72
8
 73
4
 74
0
 40
0
 40
0
 40
0
 40
0
 40
1
 40
1
 40
1
 40
1
 10
13.322024
 20
132.975243
 30
0.0
 10
12.036464
 20
134.839439
 30
0.0
 10
11.997761
 20
136.921700
 30
0.0
 10
13.225696
 20
138.157291
 30
0.0
  0
SPLINE
  5
367
100
AcDbEntity
  8
Contenu
 62
7
100
AcDbSpline
 70
8
 71
3
 72
8
 73
4
 74
0
 40
0
 40
0
 40
0
 40
0
 40
1
 40
1
 40
1
 40
1
 10
13.225696
 20
138.157291
 30
0.0
 10
13.620047
 20
138.554107
 30
0.0
 10
14.661612
 20
139.053940
 30
0.0
 10
15.764617
 20
139.375693
 30
0.0
  0
SPLINE
  5
368
100
AcDbEntity
  8
Contenu
 62
7
100
AcDbSpline
 70
8
 71
3
 72
8
 73
4
 74
0
 40
0
 40
0
 40
0
 40
0
 40
1
 40
1
 40
1
 40
1
 10
15.764617
 20
139.375693
 30
0.0
 10
17.183378
 20
139.789552
 30
0.0
 10
18.030485
 20
140.581806
 30
0.0
 10
18.241148
 20
141.691843
 30
0.0
  0
SPLINE
  5
369
100
AcDbEntity
  8
Contenu
 62
7
100
AcDbSpline
 70
8
 71
3
 72
8
 73
4
 74
0
 40
0
 40
0
 40
0
 40
0
 40
1
 40
1
 40
1
 40
1
 10
18.241148
 20
141.691843
 30
0.0
 10
18.324714
 20
142.132208
 30
0.0
 10
18.301872
 20
142.193891
 30
0.0
 10
18.055228
 20
142.193891
 30
0.0
  0
SPLINE
  5
36a
100
AcDbEntity
  8
Contenu
 62
7
100
AcDbSpline
 70
8
 71
3
 72
8
 73
4
 74
0
 40
0
 40
0
 40
0
 40
0
 40
1
 40
1
 40
1
 40
1
 10
18.055228
 20
142.193891
 30
0.0
 10
17.313649
 20
142.193891
 30
0.0
 10
16.415210
 20
143.478036
 30
0.0
 10
16.748450
 20
144.061651
 30
0.0
  0
SPLINE
  5
36b
100
AcDbEntity
  8
Contenu
 62
7
100
AcDbSpline
 70
8
 71
3
 72
8
 73
4
 74
0
 40
0
 40
0
 40
0
 40
0
 40
1
 40
1
 40
1
 40
1
 10
16.748450
 20
144.061651
 30
0.0
 10
16.929205
 20
144.378195
 30
0.0
 10
16.936854
 20
144.379369
 30
0.0
 10
17.635790
 20
144.197420
 30
0.0
  0
SPLINE
  5
36c
100
AcDbEntity
  8
Contenu
 62
7
100
AcDbSpline
 70
8
 71
3
 72
8
 73
4
 74
0
 40
0
 40
0
 40
0
 40
0
 40
1
 40
1
 40
1
 40
1
 10
17.635790
 20
144.197420
 30
0.0
 10
18.222372
 20
144.044726
 30
0.0
 10
18.894850
 20
143.390214
 30
0.0
 10
18.894850
 20
142.971997
 30
0.0
  0
SPLINE
  5
36d
100
AcDbEntity
  8
Contenu
 62
7
100
AcDbSpline
 70
8
 71
3
 72
8
 73
4
 74
0
 40
0
 40
0
 40
0
 40
0
 40
1
 40
1
 40
1
 40
1
 10
18.894850
 20
142.971997
 30
0.0
 10
18.894850
 20
142.729943
 30
0.0
 10
18.954503
 20
142.709976
 30
0.0
 10
19.430514
 20
142.792693
 30
0.0
  0
SPLINE
  5
36e
100
AcDbEntity
  8
Contenu
 62
7
100
AcDbSpline
 70
8
 71
3
 72
8
 73
4
 74
0
 40
0
 40
0
 40
0
 40
0
 40
1
 40
1
 40
1
 40
1
 10
19.430514
 20
142.792693
 30
0.0
 10
20.665440
 20
143.007280
 30
0.0
 10
21.405459
 20
143.743635
 30
0.0
 10
21.946045
 20
145.295764
 30
0.0
  0
SPLINE
  5
36f
100
AcDbEntity
  8
Contenu
 62
7
100
AcDbSpline
 70
8
 71
3
 72
8
 73
4
 74
0
 40
0
 40
0
 40
0
 40
0
 40
1
 40
1
 40
1
 40
1
 10
21.946045
 20
145.295764
 30
0.0
 10
22.474698
 20
146.813637
 30
0.0
 10
23.034896
 20
147.513796
 30
0.0
 10
24.176692
 20
148.083755
 30
0.0
  0
SPLINE
  5
370
100
AcDbEntity
  8
Contenu
 62
7
100
AcDbSpline
 70
8
 71
3
 72
8
 73
4
 74
0
 40
0
 40
0
 40
0
 40
0
 40
1
 40
1
 40
1
 40
1
 10
24.176692
 20
148.083755
 30
0.0
 10
25.655658
 20
148.822026
 30
0.0
 10
27.365866
 20
148.361191
 30
0.0
 10
30.220293
 20
146.455260
 30
0.0
  0
SPLINE
  5
371
100
AcDbEntity
  8
Contenu
 62
7
100
AcDbSpline
 70
8
 71
3
 72
8
 73
4
 74
0
 40
0
 40
0
 40
0
 40
0
 40
1
 40
1
 40
1
 40
1
 10
30.220293
 20
146.455260
 30
0.0
 10
32.691453
 20
144.805239
 30
0.0
 10
33.948787
 20
144.484161
 30
0.0
 10
35.215180
 20
145.179751
 30
0.0
  0
SPLINE
  5
372
100
AcDbEntity
  8
Contenu
 62
7
100
AcDbSpline
 70
8
 71
3
 72
8
 73
4
 74
0
 40
0
 40
0
 40
0
 40
0
 40
1
 40
1
 40
1
 40
1
 10
35.215180
 20
145.179751
 30
0.0
 10
35.574418
 20
145.377067
 30
0.0
 10
36.002498
 20
145.741952
 30
0.0
 10
36.166461
 20
145.990604
 30
0.0
  0
SPLINE
  5
373
100
AcDbEntity
  8
Contenu
 62
7
100
AcDbSpline
 70
8
 71
3
 72
8
 73
4
 74
0
 40
0
 40
0
 40
0
 40
0
 40
1
 40
1
 40
1
 40
1
 10
36.166461
 20
145.990604
 30
0.0
 10
36.519340
 20
146.525750
 30
0.0
 10
36.555140
 20
147.311186
 30
0.0
 10
36.240113
 20
147.606447
 30
0.0
  0
SPLINE
  5
374
100
AcDbEntity
  8
Contenu
 62
7
100
AcDbSpline
 70
8
 71
3
 72
8
 73
4
 74
0
 40
0
 40
0
 40
0
 40
0
 40
1
 40
1
 40
1
 40
1
 10
36.240113
 20
147.606447
 30
0.0
 10
35.990287
 20
147.840598
 30
0.0
 10
35.244734
 20
147.890964
 30
0.0
 10
35.107572
 20
147.682952
 30
0.0
  0
SPLINE
  5
375
100
AcDbEntity
  8
Contenu
 62
7
100
AcDbSpline
 70
8
 71
3
 72
8
 73
4
 74
0
 40
0
 40
0
 40
0
 40
0
 40
1
 40
1
 40
1
 40
1
 10
35.107572
 20
147.682952
 30
0.0
 10
34.986617
 20
147.499533
 30
0.0
 10
34.504745
 20
147.514033
 30
0.0
 10
34.378894
 20
147.704881
 30
0.0
  0
SPLINE
  5
376
100
AcDbEntity
  8
Contenu
 62
7
100
AcDbSpline
 70
8
 71
3
 72
8
 73
4
 74
0
 40
0
 40
0
 40
0
 40
0
 40
1
 40
1
 40
1
 40
1
 10
34.378894
 20
147.704881
 30
0.0
 10
34.188422
 20
147.993743
 30
0.0
 10
34.995411
 20
148.486633
 30
0.0
 10
35.651197
 20
148.481971
 30
0.0
  0
SPLINE
  5
377
100
AcDbEntity
  8
Contenu
 62
7
100
AcDbSpline
 70
8
 71
3
 72
8
 73
4
 74
0
 40
0
 40
0
 40
0
 40
0
 40
1
 40
1
 40
1
 40
1
 10
35.651197
 20
148.481971
 30
0.0
 10
36.592549
 20
148.475282
 30
0.0
 10
37.178803
 20
147.872063
 30
0.0
 10
37.178803
 20
146.910179
 30
0.0
  0
SPLINE
  5
378
100
AcDbEntity
  8
Contenu
 62
7
100
AcDbSpline
 70
8
 71
3
 72
8
 73
4
 74
0
 40
0
 40
0
 40
0
 40
0
 40
1
 40
1
 40
1
 40
1
 10
37.178803
 20
146.910179
 30
0.0
 10
37.178803
 20
146.202403
 30
0.0
 10
36.942084
 20
145.757604
 30
0.0
 10
36.226380
 20
145.120521
 30
0.0
  0
SPLINE
  5
379
100
AcDbEntity
  8
Contenu
 62
7
100
AcDbSpline
 70
8
 71
3
 72
8
 73
4
 74
0
 40
0
 40
0
 40
0
 40
0
 40
1
 40
1
 40
1
 40
1
 10
36.226380
 20
145.120521
 30
0.0
 10
35.340989
 20
144.332401
 30
0.0
 10
34.850679
 20
144.160683
 30
0.0
 10
33.688843
 20
144.231823
 30
0.0
  0
SPLINE
  5
37a
100
AcDbEntity
  8
Contenu
 62
7
100
AcDbSpline
 70
8
 71
3
 72
8
 73
4
 74
0
 40
0
 40
0
 40
0
 40
0
 40
1
 40
1
 40
1
 40
1
 10
33.688843
 20
144.231823
 30
0.0
 10
32.567814
 20
144.300456
 30
0.0
 10
32.000951
 20
144.526037
 30
0.0
 10
30.489685
 20
145.504891
 30
0.0
  0
SPLINE
  5
37b
100
AcDbEntity
  8
Contenu
 62
7
100
AcDbSpline
 70
8
 71
3
 72
8
 73
4
 74
0
 40
0
 40
0
 40
0
 40
0
 40
1
 40
1
 40
1
 40
1
 10
30.489685
 20
145.504891
 30
0.0
 10
27.606612
 20
147.372251
 30
0.0
 10
26.898767
 20
147.704107
 30
0.0
 10
25.757953
 20
147.723245
 30
0.0
  0
SPLINE
  5
37c
100
AcDbEntity
  8
Contenu
 62
7
100
AcDbSpline
 70
8
 71
3
 72
8
 73
4
 74
0
 40
0
 40
0
 40
0
 40
0
 40
1
 40
1
 40
1
 40
1
 10
25.757953
 20
147.723245
 30
0.0
 10
24.235066
 20
147.748786
 30
0.0
 10
23.326268
 20
146.998603
 30
0.0
 10
22.612427
 20
145.126707
 30
0.0
  0
SPLINE
  5
37d
100
AcDbEntity
  8
Contenu
 62
7
100
AcDbSpline
 70
8
 71
3
 72
8
 73
4
 74
0
 40
0
 40
0
 40
0
 40
0
 40
1
 40
1
 40
1
 40
1
 10
22.612427
 20
145.126707
 30
0.0
 10
22.384367
 20
144.528675
 30
0.0
 10
22.021575
 20
143.801064
 30
0.0
 10
21.806224
 20
143.509808
 30
0.0
  0
SPLINE
  5
37e
100
AcDbEntity
  8
Contenu
 62
7
100
AcDbSpline
 70
8
 71
3
 72
8
 73
4
 74
0
 40
0
 40
0
 40
0
 40
0
 40
1
 40
1
 40
1
 40
1
 10
21.806224
 20
143.509808
 30
0.0
 10
21.355821
 20
142.900654
 30
0.0
 10
20.437098
 20
142.349976
 30
0.0
 10
19.678822
 20
142.234649
 30
0.0
  0
SPLINE
  5
37f
100
AcDbEntity
  8
Contenu
 62
7
100
AcDbSpline
 70
8
 71
3
 72
8
 73
4
 74
0
 40
0
 40
0
 40
0
 40
0
 40
1
 40
1
 40
1
 40
1
 10
19.678822
 20
142.234649
 30
0.0
 10
19.148442
 20
142.153981
 30
0.0
 10
19.002787
 20
141.983937
 30
0.0
 10
18.838829
 20
141.254023
 30
0.0
  0
SPLINE
  5
380
100
AcDbEntity
  8
Contenu
 62
7
100
AcDbSpline
 70
8
 71
3
 72
8
 73
4
 74
0
 40
0
 40
0
 40
0
 40
0
 40
1
 40
1
 40
1
 40
1
 10
18.838829
 20
141.254023
 30
0.0
 10
18.719927
 20
140.724681
 30
0.0
 10
17.922861
 20
139.688192
 30
0.0
 10
17.403239
 20
139.387199
 30
0.0
  0
SPLINE
  5
381
100
AcDbEntity
  8
Contenu
 62
7
100
AcDbSpline
 70
8
 71
3
 72
8
 73
4
 74
0
 40
0
 40
0
 40
0
 40
0
 40
1
 40
1
 40
1
 40
1
 10
17.403239
 20
139.387199
 30
0.0
 10
17.143487
 20
139.236741
 30
0.0
 10
16.331065
 20
138.904602
 30
0.0
 10
15.597861
 20
138.649115
 30
0.0
  0
SPLINE
  5
382
100
AcDbEntity
  8
Contenu
 62
7
100
AcDbSpline
 70
8
 71
3
 72
8
 73
4
 74
0
 40
0
 40
0
 40
0
 40
0
 40
1
 40
1
 40
1
 40
1
 10
15.597861
 20
138.649115
 30
0.0
 10
13.998209
 20
138.091712
 30
0.0
 10
13.377377
 20
137.584584
 30
0.0
 10
13.109427
 20
136.616423
 30
0.0
  0
SPLINE
  5
383
100
AcDbEntity
  8
Contenu
 62
7
100
AcDbSpline
 70
8
 71
3
 72
8
 73
4
 74
0
 40
0
 40
0
 40
0
 40
0
 40
1
 40
1
 40
1
 40
1
 10
13.109427
 20
136.616423
 30
0.0
 10
12.747809
 20
135.309819
 30
0.0
 10
13.211099
 20
134.100528
 30
0.0
 10
14.870745
 20
132.019054
 30
0.0
  0
SPLINE
  5
384
100
AcDbEntity
  8
Contenu
 62
7
100
AcDbSpline
 70
8
 71
3
 72
8
 73
4
 74
0
 40
0
 40
0
 40
0
 40
0
 40
1
 40
1
 40
1
 40
1
 10
14.870745
 20
132.019054
 30
0.0
 10
15.311073
 20
131.466802
 30
0.0
 10
15.914543
 20
130.574934
 30
0.0
 10
16.211776
 20
130.037129
 30
0.0
  0
SPLINE
  5
385
100
AcDbEntity
  8
Contenu
 62
7
100
AcDbSpline
 70
8
 71
3
 72
8
 73
4
 74
0
 40
0
 40
0
 40
0
 40
0
 40
1
 40
1
 40
1
 40
1
 10
16.211776
 20
130.037129
 30
0.0
 10
16.668859
 20
129.210099
 30
0.0
 10
16.751708
 20
128.931368
 30
0.0
 10
16.749062
 20
128.229755
 30
0.0
  0
SPLINE
  5
386
100
AcDbEntity
  8
Contenu
 62
7
100
AcDbSpline
 70
8
 71
3
 72
8
 73
4
 74
0
 40
0
 40
0
 40
0
 40
0
 40
1
 40
1
 40
1
 40
1
 10
16.749062
 20
128.229755
 30
0.0
 10
16.742356
 20
126.455435
 30
0.0
 10
15.407761
 20
125.057323
 30
0.0
 10
13.720765
 20
125.057323
 30
0.0
  0
SPLINE
  5
387
100
AcDbEntity
  8
Contenu
 62
7
100
AcDbSpline
 70
8
 71
3
 72
8
 73
4
 74
0
 40
0
 40
0
 40
0
 40
0
 40
1
 40
1
 40
1
 40
1
 10
13.720765
 20
125.057323
 30
0.0
 10
13.265020
 20
125.057323
 30
0.0
 10
13.056411
 20
125.147423
 30
0.0
 10
12.666880
 20
125.512517
 30
0.0
  0
LINE
  5
388
100
AcDbEntity
  8
Contenu
 62
7
100
AcDbLine
 10
12.666880
 20
125.512517
 30
0.0
 11
12.666880
 21
125.512514
 31
0.0
  0
SPLINE
  5
389
100
AcDbEntity
  8
Contenu
 62
7
100
AcDbSpline
 70
8
 71
3
 72
8
 73
4
 74
0
 40
0
 40
0
 40
0
 40
0
 40
1
 40
1
 40
1
 40
1
 10
18.198892
 20
142.965201
 30
0.0
 10
18.124837
 20
143.094879
 30
0.0
 10
17.929735
 20
143.315080
 30
0.0
 10
17.765331
 20
143.454526
 30
0.0
  0
SPLINE
  5
38a
100
AcDbEntity
  8
Contenu
 62
7
100
AcDbSpline
 70
8
 71
3
 72
8
 73
4
 74
0
 40
0
 40
0
 40
0
 40
0
 40
1
 40
1
 40
1
 40
1
 10
17.765331
 20
143.454526
 30
0.0
 10
17.511458
 20
143.669868
 30
0.0
 10
17.466416
 20
143.676150
 30
0.0
 10
17.466416
 20
143.496213
 30
0.0
  0
SPLINE
  5
38b
100
AcDbEntity
  8
Contenu
 62
7
100
AcDbSpline
 70
8
 71
3
 72
8
 73
4
 74
0
 40
0
 40
0
 40
0
 40
0
 40
1
 40
1
 40
1
 40
1
 10
17.466416
 20
143.496213
 30
0.0
 10
17.466416
 20
143.379698
 30
0.0
 10
17.635790
 20
143.159497
 30
0.0
 10
17.842794
 20
143.006885
 30
0.0
  0
SPLINE
  5
38c
100
AcDbEntity
  8
Contenu
 62
7
100
AcDbSpline
 70
8
 71
3
 72
8
 73
4
 74
0
 40
0
 40
0
 40
0
 40
0
 40
1
 40
1
 40
1
 40
1
 10
17.842794
 20
143.006885
 30
0.0
 10
18.302572
 20
142.667917
 30
0.0
 10
18.373382
 20
142.659631
 30
0.0
 10
18.198892
 20
142.965201
 30
0.0
  0
LINE
  5
38d
100
AcDbEntity
  8
Contenu
 62
7
100
AcDbLine
 10
18.198892
 20
142.965201
 30
0.0
 11
18.198892
 21
142.965201
 31
0.0
  0
SPLINE
  5
38e
100
AcDbEntity
  8
Contenu
 62
7
100
AcDbSpline
 70
8
 71
3
 72
8
 73
4
 74
0
 40
0
 40
0
 40
0
 40
0
 40
1
 40
1
 40
1
 40
1
 10
116.932269
 20
125.413677
 30
0.0
 10
115.627189
 20
126.245840
 30
0.0
 10
115.019056
 20
127.504958
 30
0.0
 10
115.318122
 20
128.755724
 30
0.0
  0
SPLINE
  5
38f
100
AcDbEntity
  8
Contenu
 62
7
100
AcDbSpline
 70
8
 71
3
 72
8
 73
4
 74
0
 40
0
 40
0
 40
0
 40
0
 40
1
 40
1
 40
1
 40
1
 10
115.318122
 20
128.755724
 30
0.0
 10
115.551449
 20
129.731508
 30
0.0
 10
115.816066
 20
130.214579
 30
0.0
 10
116.909753
 20
131.661264
 30
0.0
  0
SPLINE
  5
390
100
AcDbEntity
  8
Contenu
 62
7
100
AcDbSpline
 70
8
 71
3
 72
8
 73
4
 74
0
 40
0
 40
0
 40
0
 40
0
 40
1
 40
1
 40
1
 40
1
 10
116.909753
 20
131.661264
 30
0.0
 10
118.481641
 20
133.740500
 30
0.0
 10
119.028048
 20
134.802973
 30
0.0
 10
119.028048
 20
135.780216
 30
0.0
  0
SPLINE
  5
391
100
AcDbEntity
  8
Contenu
 62
7
100
AcDbSpline
 70
8
 71
3
 72
8
 73
4
 74
0
 40
0
 40
0
 40
0
 40
0
 40
1
 40
1
 40
1
 40
1
 10
119.028048
 20
135.780216
 30
0.0
 10
119.028048
 20
137.270933
 30
0.0
 10
118.168817
 20
138.170141
 30
0.0
 10
116.212738
 20
138.726494
 30
0.0
  0
SPLINE
  5
392
100
AcDbEntity
  8
Contenu
 62
7
100
AcDbSpline
 70
8
 71
3
 72
8
 73
4
 74
0
 40
0
 40
0
 40
0
 40
0
 40
1
 40
1
 40
1
 40
1
 10
116.212738
 20
138.726494
 30
0.0
 10
115.679219
 20
138.878242
 30
0.0
 10
115.006176
 20
139.146201
 30
0.0
 10
114.717084
 20
139.321961
 30
0.0
  0
SPLINE
  5
393
100
AcDbEntity
  8
Contenu
 62
7
100
AcDbSpline
 70
8
 71
3
 72
8
 73
4
 74
0
 40
0
 40
0
 40
0
 40
0
 40
1
 40
1
 40
1
 40
1
 10
114.717084
 20
139.321961
 30
0.0
 10
114.043363
 20
139.731567
 30
0.0
 10
113.362432
 20
140.660795
 30
0.0
 10
113.133854
 20
141.482490
 30
0.0
  0
SPLINE
  5
394
100
AcDbEntity
  8
Contenu
 62
7
100
AcDbSpline
 70
8
 71
3
 72
8
 73
4
 74
0
 40
0
 40
0
 40
0
 40
0
 40
1
 40
1
 40
1
 40
1
 10
113.133854
 20
141.482490
 30
0.0
 10
112.974997
 20
142.053513
 30
0.0
 10
112.905901
 20
142.131920
 30
0.0
 10
112.527364
 20
142.170537
 30
0.0
  0
SPLINE
  5
395
100
AcDbEntity
  8
Contenu
 62
7
100
AcDbSpline
 70
8
 71
3
 72
8
 73
4
 74
0
 40
0
 40
0
 40
0
 40
0
 40
1
 40
1
 40
1
 40
1
 10
112.527364
 20
142.170537
 30
0.0
 10
111.901582
 20
142.234378
 30
0.0
 10
110.774053
 20
142.851790
 30
0.0
 10
110.301032
 20
143.389638
 30
0.0
  0
SPLINE
  5
396
100
AcDbEntity
  8
Contenu
 62
7
100
AcDbSpline
 70
8
 71
3
 72
8
 73
4
 74
0
 40
0
 40
0
 40
0
 40
0
 40
1
 40
1
 40
1
 40
1
 10
110.301032
 20
143.389638
 30
0.0
 10
110.074444
 20
143.647267
 30
0.0
 10
109.725403
 20
144.318646
 30
0.0
 10
109.525381
 20
144.881594
 30
0.0
  0
SPLINE
  5
397
100
AcDbEntity
  8
Contenu
 62
7
100
AcDbSpline
 70
8
 71
3
 72
8
 73
4
 74
0
 40
0
 40
0
 40
0
 40
0
 40
1
 40
1
 40
1
 40
1
 10
109.525381
 20
144.881594
 30
0.0
 10
108.780227
 20
146.978666
 30
0.0
 10
107.908747
 20
147.730653
 30
0.0
 10
106.249162
 20
147.708600
 30
0.0
  0
SPLINE
  5
398
100
AcDbEntity
  8
Contenu
 62
7
100
AcDbSpline
 70
8
 71
3
 72
8
 73
4
 74
0
 40
0
 40
0
 40
0
 40
0
 40
1
 40
1
 40
1
 40
1
 10
106.249162
 20
147.708600
 30
0.0
 10
105.209201
 20
147.694771
 30
0.0
 10
103.989157
 20
147.157087
 30
0.0
 10
102.243951
 20
145.943447
 30
0.0
  0
SPLINE
  5
399
100
AcDbEntity
  8
Contenu
 62
7
100
AcDbSpline
 70
8
 71
3
 72
8
 73
4
 74
0
 40
0
 40
0
 40
0
 40
0
 40
1
 40
1
 40
1
 40
1
 10
102.243951
 20
145.943447
 30
0.0
 10
100.617457
 20
144.812354
 30
0.0
 10
99.475868
 20
144.296971
 30
0.0
 10
98.441684
 20
144.226859
 30
0.0
  0
SPLINE
  5
39a
100
AcDbEntity
  8
Contenu
 62
7
100
AcDbSpline
 70
8
 71
3
 72
8
 73
4
 74
0
 40
0
 40
0
 40
0
 40
0
 40
1
 40
1
 40
1
 40
1
 10
98.441684
 20
144.226859
 30
0.0
 10
96.532284
 20
144.097412
 30
0.0
 10
94.887530
 20
145.326664
 30
0.0
 10
94.887530
 20
146.883140
 30
0.0
  0
SPLINE
  5
39b
100
AcDbEntity
  8
Contenu
 62
7
100
AcDbSpline
 70
8
 71
3
 72
8
 73
4
 74
0
 40
0
 40
0
 40
0
 40
0
 40
1
 40
1
 40
1
 40
1
 10
94.887530
 20
146.883140
 30
0.0
 10
94.887530
 20
147.871767
 30
0.0
 10
95.333619
 20
148.367507
 30
0.0
 10
96.301695
 20
148.454689
 30
0.0
  0
SPLINE
  5
39c
100
AcDbEntity
  8
Contenu
 62
7
100
AcDbSpline
 70
8
 71
3
 72
8
 73
4
 74
0
 40
0
 40
0
 40
0
 40
0
 40
1
 40
1
 40
1
 40
1
 10
96.301695
 20
148.454689
 30
0.0
 10
96.868115
 20
148.505697
 30
0.0
 10
97.043739
 20
148.462478
 30
0.0
 10
97.384003
 20
148.188135
 30
0.0
  0
SPLINE
  5
39d
100
AcDbEntity
  8
Contenu
 62
7
100
AcDbSpline
 70
8
 71
3
 72
8
 73
4
 74
0
 40
0
 40
0
 40
0
 40
0
 40
1
 40
1
 40
1
 40
1
 10
97.384003
 20
148.188135
 30
0.0
 10
97.619232
 20
147.998493
 30
0.0
 10
97.746929
 20
147.795115
 30
0.0
 10
97.687426
 20
147.704878
 30
0.0
  0
SPLINE
  5
39e
100
AcDbEntity
  8
Contenu
 62
7
100
AcDbSpline
 70
8
 71
3
 72
8
 73
4
 74
0
 40
0
 40
0
 40
0
 40
0
 40
1
 40
1
 40
1
 40
1
 10
97.687426
 20
147.704878
 30
0.0
 10
97.561591
 20
147.514033
 30
0.0
 10
97.079702
 20
147.499533
 30
0.0
 10
96.958762
 20
147.682949
 30
0.0
  0
SPLINE
  5
39f
100
AcDbEntity
  8
Contenu
 62
7
100
AcDbSpline
 70
8
 71
3
 72
8
 73
4
 74
0
 40
0
 40
0
 40
0
 40
0
 40
1
 40
1
 40
1
 40
1
 10
96.958762
 20
147.682949
 30
0.0
 10
96.821585
 20
147.890961
 30
0.0
 10
96.076036
 20
147.840596
 30
0.0
 10
95.826204
 20
147.606444
 30
0.0
  0
SPLINE
  5
3a0
100
AcDbEntity
  8
Contenu
 62
7
100
AcDbSpline
 70
8
 71
3
 72
8
 73
4
 74
0
 40
0
 40
0
 40
0
 40
0
 40
1
 40
1
 40
1
 40
1
 10
95.826204
 20
147.606444
 30
0.0
 10
95.494542
 20
147.295593
 30
0.0
 10
95.545441
 20
146.462075
 30
0.0
 10
95.928662
 20
145.928845
 30
0.0
  0
SPLINE
  5
3a1
100
AcDbEntity
  8
Contenu
 62
7
100
AcDbSpline
 70
8
 71
3
 72
8
 73
4
 74
0
 40
0
 40
0
 40
0
 40
0
 40
1
 40
1
 40
1
 40
1
 10
95.928662
 20
145.928845
 30
0.0
 10
96.381106
 20
145.299295
 30
0.0
 10
97.356878
 20
144.818546
 30
0.0
 10
98.167601
 20
144.825743
 30
0.0
  0
SPLINE
  5
3a2
100
AcDbEntity
  8
Contenu
 62
7
100
AcDbSpline
 70
8
 71
3
 72
8
 73
4
 74
0
 40
0
 40
0
 40
0
 40
0
 40
1
 40
1
 40
1
 40
1
 10
98.167601
 20
144.825743
 30
0.0
 10
99.067546
 20
144.833729
 30
0.0
 10
100.109412
 20
145.310087
 30
0.0
 10
101.965350
 20
146.562109
 30
0.0
  0
SPLINE
  5
3a3
100
AcDbEntity
  8
Contenu
 62
7
100
AcDbSpline
 70
8
 71
3
 72
8
 73
4
 74
0
 40
0
 40
0
 40
0
 40
0
 40
1
 40
1
 40
1
 40
1
 10
101.965350
 20
146.562109
 30
0.0
 10
103.905252
 20
147.870791
 30
0.0
 10
104.788735
 20
148.250216
 30
0.0
 10
106.072510
 20
148.325998
 30
0.0
  0
SPLINE
  5
3a4
100
AcDbEntity
  8
Contenu
 62
7
100
AcDbSpline
 70
8
 71
3
 72
8
 73
4
 74
0
 40
0
 40
0
 40
0
 40
0
 40
1
 40
1
 40
1
 40
1
 10
106.072510
 20
148.325998
 30
0.0
 10
107.252860
 20
148.395673
 30
0.0
 10
108.012370
 20
148.155925
 30
0.0
 10
108.782298
 20
147.470619
 30
0.0
  0
SPLINE
  5
3a5
100
AcDbEntity
  8
Contenu
 62
7
100
AcDbSpline
 70
8
 71
3
 72
8
 73
4
 74
0
 40
0
 40
0
 40
0
 40
0
 40
1
 40
1
 40
1
 40
1
 10
108.782298
 20
147.470619
 30
0.0
 10
109.397861
 20
146.922704
 30
0.0
 10
109.717312
 20
146.378515
 30
0.0
 10
110.153461
 20
145.134719
 30
0.0
  0
SPLINE
  5
3a6
100
AcDbEntity
  8
Contenu
 62
7
100
AcDbSpline
 70
8
 71
3
 72
8
 73
4
 74
0
 40
0
 40
0
 40
0
 40
0
 40
1
 40
1
 40
1
 40
1
 10
110.153461
 20
145.134719
 30
0.0
 10
110.522305
 20
144.082855
 30
0.0
 10
111.159879
 20
143.317973
 30
0.0
 10
111.947200
 20
142.982820
 30
0.0
  0
SPLINE
  5
3a7
100
AcDbEntity
  8
Contenu
 62
7
100
AcDbSpline
 70
8
 71
3
 72
8
 73
4
 74
0
 40
0
 40
0
 40
0
 40
0
 40
1
 40
1
 40
1
 40
1
 10
111.947200
 20
142.982820
 30
0.0
 10
112.750481
 20
142.640868
 30
0.0
 10
113.009507
 20
142.664832
 30
0.0
 10
113.184953
 20
143.097332
 30
0.0
  0
SPLINE
  5
3a8
100
AcDbEntity
  8
Contenu
 62
7
100
AcDbSpline
 70
8
 71
3
 72
8
 73
4
 74
0
 40
0
 40
0
 40
0
 40
0
 40
1
 40
1
 40
1
 40
1
 10
113.184953
 20
143.097332
 30
0.0
 10
113.393442
 20
143.611281
 30
0.0
 10
113.734914
 20
143.939813
 30
0.0
 10
114.288995
 20
144.159523
 30
0.0
  0
SPLINE
  5
3a9
100
AcDbEntity
  8
Contenu
 62
7
100
AcDbSpline
 70
8
 71
3
 72
8
 73
4
 74
0
 40
0
 40
0
 40
0
 40
0
 40
1
 40
1
 40
1
 40
1
 10
114.288995
 20
144.159523
 30
0.0
 10
114.982057
 20
144.434343
 30
0.0
 10
115.314120
 20
144.289269
 30
0.0
 10
115.314120
 20
143.711679
 30
0.0
  0
SPLINE
  5
3aa
100
AcDbEntity
  8
Contenu
 62
7
100
AcDbSpline
 70
8
 71
3
 72
8
 73
4
 74
0
 40
0
 40
0
 40
0
 40
0
 40
1
 40
1
 40
1
 40
1
 10
115.314120
 20
143.711679
 30
0.0
 10
115.314120
 20
143.104105
 30
0.0
 10
114.867500
 20
142.521257
 30
0.0
 10
114.238568
 20
142.308109
 30
0.0
  0
SPLINE
  5
3ab
100
AcDbEntity
  8
Contenu
 62
7
100
AcDbSpline
 70
8
 71
3
 72
8
 73
4
 74
0
 40
0
 40
0
 40
0
 40
0
 40
1
 40
1
 40
1
 40
1
 10
114.238568
 20
142.308109
 30
0.0
 10
113.649519
 20
142.108465
 30
0.0
 10
113.596354
 20
141.782955
 30
0.0
 10
114.024395
 20
140.996591
 30
0.0
  0
SPLINE
  5
3ac
100
AcDbEntity
  8
Contenu
 62
7
100
AcDbSpline
 70
8
 71
3
 72
8
 73
4
 74
0
 40
0
 40
0
 40
0
 40
0
 40
1
 40
1
 40
1
 40
1
 10
114.024395
 20
140.996591
 30
0.0
 10
114.517886
 20
140.089961
 30
0.0
 10
115.248873
 20
139.647896
 30
0.0
 10
117.151146
 20
139.105699
 30
0.0
  0
SPLINE
  5
3ad
100
AcDbEntity
  8
Contenu
 62
7
100
AcDbSpline
 70
8
 71
3
 72
8
 73
4
 74
0
 40
0
 40
0
 40
0
 40
0
 40
1
 40
1
 40
1
 40
1
 10
117.151146
 20
139.105699
 30
0.0
 10
117.947840
 20
138.878620
 30
0.0
 10
119.058672
 20
137.943821
 30
0.0
 10
119.463735
 20
137.159574
 30
0.0
  0
SPLINE
  5
3ae
100
AcDbEntity
  8
Contenu
 62
7
100
AcDbSpline
 70
8
 71
3
 72
8
 73
4
 74
0
 40
0
 40
0
 40
0
 40
0
 40
1
 40
1
 40
1
 40
1
 10
119.463735
 20
137.159574
 30
0.0
 10
119.724056
 20
136.655579
 30
0.0
 10
119.766951
 20
136.391382
 30
0.0
 10
119.709875
 20
135.643784
 30
0.0
  0
SPLINE
  5
3af
100
AcDbEntity
  8
Contenu
 62
7
100
AcDbSpline
 70
8
 71
3
 72
8
 73
4
 74
0
 40
0
 40
0
 40
0
 40
0
 40
1
 40
1
 40
1
 40
1
 10
119.709875
 20
135.643784
 30
0.0
 10
119.622310
 20
134.496618
 30
0.0
 10
119.202199
 20
133.626456
 30
0.0
 10
117.841273
 20
131.773433
 30
0.0
  0
SPLINE
  5
3b0
100
AcDbEntity
  8
Contenu
 62
7
100
AcDbSpline
 70
8
 71
3
 72
8
 73
4
 74
0
 40
0
 40
0
 40
0
 40
0
 40
1
 40
1
 40
1
 40
1
 10
117.841273
 20
131.773433
 30
0.0
 10
116.184541
 20
129.517600
 30
0.0
 10
115.788465
 20
128.669409
 30
0.0
 10
115.956517
 20
127.737142
 30
0.0
  0
SPLINE
  5
3b1
100
AcDbEntity
  8
Contenu
 62
7
100
AcDbSpline
 70
8
 71
3
 72
8
 73
4
 74
0
 40
0
 40
0
 40
0
 40
0
 40
1
 40
1
 40
1
 40
1
 10
115.956517
 20
127.737142
 30
0.0
 10
116.072843
 20
127.091869
 30
0.0
 10
116.731335
 20
126.209908
 30
0.0
 10
117.304018
 20
125.932339
 30
0.0
  0
SPLINE
  5
3b2
100
AcDbEntity
  8
Contenu
 62
7
100
AcDbSpline
 70
8
 71
3
 72
8
 73
4
 74
0
 40
0
 40
0
 40
0
 40
0
 40
1
 40
1
 40
1
 40
1
 10
117.304018
 20
125.932339
 30
0.0
 10
117.883544
 20
125.651460
 30
0.0
 10
118.643055
 20
125.669726
 30
0.0
 10
118.934500
 20
125.971551
 30
0.0
  0
SPLINE
  5
3b3
100
AcDbEntity
  8
Contenu
 62
7
100
AcDbSpline
 70
8
 71
3
 72
8
 73
4
 74
0
 40
0
 40
0
 40
0
 40
0
 40
1
 40
1
 40
1
 40
1
 10
118.934500
 20
125.971551
 30
0.0
 10
119.222982
 20
126.270320
 30
0.0
 10
119.242509
 20
126.843155
 30
0.0
 10
118.971375
 20
127.054043
 30
0.0
  0
SPLINE
  5
3b4
100
AcDbEntity
  8
Contenu
 62
7
100
AcDbSpline
 70
8
 71
3
 72
8
 73
4
 74
0
 40
0
 40
0
 40
0
 40
0
 40
1
 40
1
 40
1
 40
1
 10
118.971375
 20
127.054043
 30
0.0
 10
118.731114
 20
127.240933
 30
0.0
 10
118.837650
 20
127.734907
 30
0.0
 10
119.118235
 20
127.734907
 30
0.0
  0
SPLINE
  5
3b5
100
AcDbEntity
  8
Contenu
 62
7
100
AcDbSpline
 70
8
 71
3
 72
8
 73
4
 74
0
 40
0
 40
0
 40
0
 40
0
 40
1
 40
1
 40
1
 40
1
 10
119.118235
 20
127.734907
 30
0.0
 10
119.411614
 20
127.734907
 30
0.0
 10
119.883964
 20
126.931643
 30
0.0
 10
119.884587
 20
126.431698
 30
0.0
  0
SPLINE
  5
3b6
100
AcDbEntity
  8
Contenu
 62
7
100
AcDbSpline
 70
8
 71
3
 72
8
 73
4
 74
0
 40
0
 40
0
 40
0
 40
0
 40
1
 40
1
 40
1
 40
1
 10
119.884587
 20
126.431698
 30
0.0
 10
119.884587
 20
126.144949
 30
0.0
 10
119.748486
 20
125.855377
 30
0.0
 10
119.480580
 20
125.574360
 30
0.0
  0
SPLINE
  5
3b7
100
AcDbEntity
  8
Contenu
 62
7
100
AcDbSpline
 70
8
 71
3
 72
8
 73
4
 74
0
 40
0
 40
0
 40
0
 40
0
 40
1
 40
1
 40
1
 40
1
 10
119.480580
 20
125.574360
 30
0.0
 10
119.141730
 20
125.218918
 30
0.0
 10
118.950378
 20
125.140579
 30
0.0
 10
118.302122
 20
125.091853
 30
0.0
  0
SPLINE
  5
3b8
100
AcDbEntity
  8
Contenu
 62
7
100
AcDbSpline
 70
8
 71
3
 72
8
 73
4
 74
0
 40
0
 40
0
 40
0
 40
0
 40
1
 40
1
 40
1
 40
1
 10
118.302122
 20
125.091853
 30
0.0
 10
117.630205
 20
125.041358
 30
0.0
 10
117.449659
 20
125.083782
 30
0.0
 10
116.932269
 20
125.413674
 30
0.0
  0
LINE
  5
3b9
100
AcDbEntity
  8
Contenu
 62
7
100
AcDbLine
 10
116.932269
 20
125.413674
 30
0.0
 11
116.932269
 21
125.413677
 31
0.0
  0
SPLINE
  5
3ba
100
AcDbEntity
  8
Contenu
 62
7
100
AcDbSpline
 70
8
 71
3
 72
8
 73
4
 74
0
 40
0
 40
0
 40
0
 40
0
 40
1
 40
1
 40
1
 40
1
 10
114.453460
 20
143.193917
 30
0.0
 10
114.556401
 20
143.310167
 30
0.0
 10
114.599073
 20
143.444222
 30
0.0
 10
114.548284
 20
143.491825
 30
0.0
  0
SPLINE
  5
3bb
100
AcDbEntity
  8
Contenu
 62
7
100
AcDbSpline
 70
8
 71
3
 72
8
 73
4
 74
0
 40
0
 40
0
 40
0
 40
0
 40
1
 40
1
 40
1
 40
1
 10
114.548284
 20
143.491825
 30
0.0
 10
114.445186
 20
143.588455
 30
0.0
 10
113.742842
 20
143.015919
 30
0.0
 10
113.742842
 20
142.835243
 30
0.0
  0
SPLINE
  5
3bc
100
AcDbEntity
  8
Contenu
 62
7
100
AcDbSpline
 70
8
 71
3
 72
8
 73
4
 74
0
 40
0
 40
0
 40
0
 40
0
 40
1
 40
1
 40
1
 40
1
 10
113.742842
 20
142.835243
 30
0.0
 10
113.742842
 20
142.685163
 30
0.0
 10
114.213168
 20
142.922552
 30
0.0
 10
114.453460
 20
143.193917
 30
0.0
  0
LINE
  5
3bd
100
AcDbEntity
  8
Contenu
 62
7
100
AcDbLine
 10
114.453460
 20
143.193917
 30
0.0
 11
114.453460
 21
143.193917
 31
0.0
  0
SPLINE
  5
3be
100
AcDbEntity
  8
Contenu
 62
7
100
AcDbSpline
 70
8
 71
3
 72
8
 73
4
 74
0
 40
0
 40
0
 40
0
 40
0
 40
1
 40
1
 40
1
 40
1
 10
13.433235
 20
13.430882
 30
0.0
 10
13.521171
 20
13.530168
 30
0.0
 10
13.657825
 20
13.770932
 30
0.0
 10
13.736895
 20
13.965863
 30
0.0
  0
SPLINE
  5
3bf
100
AcDbEntity
  8
Contenu
 62
7
100
AcDbSpline
 70
8
 71
3
 72
8
 73
4
 74
0
 40
0
 40
0
 40
0
 40
0
 40
1
 40
1
 40
1
 40
1
 10
13.736895
 20
13.965863
 30
0.0
 10
13.878223
 20
14.314266
 30
0.0
 10
13.873504
 20
14.317935
 30
0.0
 10
13.458602
 20
14.182384
 30
0.0
  0
SPLINE
  5
3c0
100
AcDbEntity
  8
Contenu
 62
7
100
AcDbSpline
 70
8
 71
3
 72
8
 73
4
 74
0
 40
0
 40
0
 40
0
 40
0
 40
1
 40
1
 40
1
 40
1
 10
13.458602
 20
14.182384
 30
0.0
 10
12.970421
 20
14.022872
 30
0.0
 10
12.466899
 20
13.479707
 30
0.0
 10
12.466899
 20
13.112592
 30
0.0
  0
SPLINE
  5
3c1
100
AcDbEntity
  8
Contenu
 62
7
100
AcDbSpline
 70
8
 71
3
 72
8
 73
4
 74
0
 40
0
 40
0
 40
0
 40
0
 40
1
 40
1
 40
1
 40
1
 10
12.466899
 20
13.112592
 30
0.0
 10
12.466899
 20
12.877924
 30
0.0
 10
12.496374
 20
12.873719
 30
0.0
 10
12.870119
 20
13.054878
 30
0.0
  0
SPLINE
  5
3c2
100
AcDbEntity
  8
Contenu
 62
7
100
AcDbSpline
 70
8
 71
3
 72
8
 73
4
 74
0
 40
0
 40
0
 40
0
 40
0
 40
1
 40
1
 40
1
 40
1
 10
12.870119
 20
13.054878
 30
0.0
 10
13.091897
 20
13.162348
 30
0.0
 10
13.345295
 20
13.331540
 30
0.0
 10
13.433235
 20
13.430882
 30
0.0
  0
LINE
  5
3c3
100
AcDbEntity
  8
Contenu
 62
7
100
AcDbLine
 10
13.433235
 20
13.430882
 30
0.0
 11
13.433235
 21
13.430882
 31
0.0
  0
SPLINE
  5
3c4
100
AcDbEntity
  8
Contenu
 62
7
100
AcDbSpline
 70
8
 71
3
 72
8
 73
4
 74
0
 40
0
 40
0
 40
0
 40
0
 40
1
 40
1
 40
1
 40
1
 10
119.359329
 20
13.561579
 30
0.0
 10
119.060055
 20
14.041865
 30
0.0
 10
118.170985
 20
14.481229
 30
0.0
 10
118.170985
 20
14.148827
 30
0.0
  0
SPLINE
  5
3c5
100
AcDbEntity
  8
Contenu
 62
7
100
AcDbSpline
 70
8
 71
3
 72
8
 73
4
 74
0
 40
0
 40
0
 40
0
 40
0
 40
1
 40
1
 40
1
 40
1
 10
118.170985
 20
14.148827
 30
0.0
 10
118.170985
 20
13.699247
 30
0.0
 10
119.438916
 20
12.678591
 30
0.0
 10
119.576076
 20
13.017765
 30
0.0
  0
SPLINE
  5
3c6
100
AcDbEntity
  8
Contenu
 62
7
100
AcDbSpline
 70
8
 71
3
 72
8
 73
4
 74
0
 40
0
 40
0
 40
0
 40
0
 40
1
 40
1
 40
1
 40
1
 10
119.576076
 20
13.017765
 30
0.0
 10
119.602520
 20
13.083128
 30
0.0
 10
119.504970
 20
13.327871
 30
0.0
 10
119.359329
 20
13.561579
 30
0.0
  0
LINE
  5
3c7
100
AcDbEntity
  8
Contenu
 62
7
100
AcDbLine
 10
119.359329
 20
13.561579
 30
0.0
 11
119.359329
 21
13.561579
 31
0.0
  0
SPLINE
  5
3c8
100
AcDbEntity
  8
Contenu
 62
7
100
AcDbSpline
 70
8
 71
3
 72
8
 73
4
 74
0
 40
0
 40
0
 40
0
 40
0
 40
1
 40
1
 40
1
 40
1
 10
13.735912
 20
147.268314
 30
0.0
 10
13.564814
 20
147.728347
 30
0.0
 10
13.254159
 20
148.014286
 30
0.0
 10
12.717842
 20
148.205402
 30
0.0
  0
LINE
  5
3c9
100
AcDbEntity
  8
Contenu
 62
7
100
AcDbLine
 10
12.717842
 20
148.205402
 30
0.0
 11
12.326496
 21
148.344848
 31
0.0
  0
LINE
  5
3ca
100
AcDbEntity
  8
Contenu
 62
7
100
AcDbLine
 10
12.326496
 20
148.344848
 30
0.0
 11
12.513754
 21
147.913491
 31
0.0
  0
SPLINE
  5
3cb
100
AcDbEntity
  8
Contenu
 62
7
100
AcDbSpline
 70
8
 71
3
 72
8
 73
4
 74
0
 40
0
 40
0
 40
0
 40
0
 40
1
 40
1
 40
1
 40
1
 10
12.513754
 20
147.913491
 30
0.0
 10
12.680853
 20
147.528585
 30
0.0
 10
13.466980
 20
146.879677
 30
0.0
 10
13.766178
 20
146.879677
 30
0.0
  0
SPLINE
  5
3cc
100
AcDbEntity
  8
Contenu
 62
7
100
AcDbSpline
 70
8
 71
3
 72
8
 73
4
 74
0
 40
0
 40
0
 40
0
 40
0
 40
1
 40
1
 40
1
 40
1
 10
13.766178
 20
146.879677
 30
0.0
 10
13.829044
 20
146.879677
 30
0.0
 10
13.815429
 20
147.054562
 30
0.0
 10
13.735912
 20
147.268314
 30
0.0
  0
LINE
  5
3cd
100
AcDbEntity
  8
Contenu
 62
7
100
AcDbLine
 10
13.735912
 20
147.268314
 30
0.0
 11
13.735912
 21
147.268314
 31
0.0
  0
SPLINE
  5
3ce
100
AcDbEntity
  8
Contenu
 62
7
100
AcDbSpline
 70
8
 71
3
 72
8
 73
4
 74
0
 40
0
 40
0
 40
0
 40
0
 40
1
 40
1
 40
1
 40
1
 10
119.314030
 20
147.549464
 30
0.0
 10
119.470996
 20
147.756067
 30
0.0
 10
119.599421
 20
147.991110
 30
0.0
 10
119.599421
 20
148.071784
 30
0.0
  0
SPLINE
  5
3cf
100
AcDbEntity
  8
Contenu
 62
7
100
AcDbSpline
 70
8
 71
3
 72
8
 73
4
 74
0
 40
0
 40
0
 40
0
 40
0
 40
1
 40
1
 40
1
 40
1
 10
119.599421
 20
148.071784
 30
0.0
 10
119.599421
 20
148.538142
 30
0.0
 10
118.423641
 20
147.768254
 30
0.0
 10
118.245415
 20
147.185197
 30
0.0
  0
SPLINE
  5
3d0
100
AcDbEntity
  8
Contenu
 62
7
100
AcDbSpline
 70
8
 71
3
 72
8
 73
4
 74
0
 40
0
 40
0
 40
0
 40
0
 40
1
 40
1
 40
1
 40
1
 10
118.245415
 20
147.185197
 30
0.0
 10
118.159814
 20
146.905164
 30
0.0
 10
118.179528
 20
146.896387
 30
0.0
 10
118.591645
 20
147.031038
 30
0.0
  0
SPLINE
  5
3d1
100
AcDbEntity
  8
Contenu
 62
7
100
AcDbSpline
 70
8
 71
3
 72
8
 73
4
 74
0
 40
0
 40
0
 40
0
 40
0
 40
1
 40
1
 40
1
 40
1
 10
118.591645
 20
147.031038
 30
0.0
 10
118.831994
 20
147.109569
 30
0.0
 10
119.157069
 20
147.342857
 30
0.0
 10
119.314030
 20
147.549464
 30
0.0
  0
LINE
  5
3d2
100
AcDbEntity
  8
Contenu
 62
7
100
AcDbLine
 10
119.314030
 20
147.549464
 30
0.0
 11
119.314030
 21
147.549464
 31
0.0
  0
SPLINE
  5
3d3
100
AcDbEntity
  8
Contenu
 62
7
100
AcDbSpline
 70
8
 71
3
 72
8
 73
4
 74
0
 40
0
 40
0
 40
0
 40
0
 40
1
 40
1
 40
1
 40
1
 10
41.865848
 20
153.129584
 30
0.0
 10
41.968967
 20
153.168257
 30
0.0
 10
42.092168
 20
153.163499
 30
0.0
 10
42.139635
 20
153.119029
 30
0.0
  0
SPLINE
  5
3d4
100
AcDbEntity
  8
Contenu
 62
7
100
AcDbSpline
 70
8
 71
3
 72
8
 73
4
 74
0
 40
0
 40
0
 40
0
 40
0
 40
1
 40
1
 40
1
 40
1
 10
42.139635
 20
153.119029
 30
0.0
 10
42.187099
 20
153.074545
 30
0.0
 10
42.102732
 20
153.042902
 30
0.0
 10
41.952149
 20
153.048716
 30
0.0
  0
SPLINE
  5
3d5
100
AcDbEntity
  8
Contenu
 62
7
100
AcDbSpline
 70
8
 71
3
 72
8
 73
4
 74
0
 40
0
 40
0
 40
0
 40
0
 40
1
 40
1
 40
1
 40
1
 10
41.952149
 20
153.048716
 30
0.0
 10
41.785742
 20
153.055151
 30
0.0
 10
41.751904
 20
153.086861
 30
0.0
 10
41.865848
 20
153.129601
 30
0.0
  0
LINE
  5
3d6
100
AcDbEntity
  8
Contenu
 62
7
100
AcDbLine
 10
41.865848
 20
153.129601
 30
0.0
 11
41.865848
 21
153.129584
 31
0.0
  0
ENDSEC
  0
SECTION
  2
OBJECTS
  0
DICTIONARY
  5
C
330
0
100
AcDbDictionary
  3
ACAD_GROUP
350
D
  3
ACAD_MLINESTYLE
350
17
  0
DICTIONARY
  5
D
330
C
100
AcDbDictionary
  0
DICTIONARY
  5
1A
330
C
100
AcDbDictionary
  0
DICTIONARY
  5
17
330
C
100
AcDbDictionary
  3
STANDARD
350
18
  0
DICTIONARY
  5
19
330
C
100
AcDbDictionary
  0
ENDSEC
  0
EOF
