  0
SECTION
  2
HEADER
  9
$ACADVER
  1
AC1014
  9
$ACADMAINTVER
 70
     9
  9
$DWGCODEPAGE
  3
ANSI_932
  9
$INSBASE
 10
0.0
 20
0.0
 30
0.0
  9
$EXTMIN
 10
1.000000000000000E+20
 20
1.000000000000000E+20
 30
1.000000000000000E+20
  9
$EXTMAX
 10
-1.000000000000000E+20
 20
-1.000000000000000E+20
 30
-1.000000000000000E+20
  9
$LIMMIN
 10
0.0
 20
0.0
  9
$LIMMAX
 10
12.0
 20
9.0
  9
$ORTHOMODE
 70
     0
  9
$REGENMODE
 70
     1
  9
$FILLMODE
 70
     1
  9
$QTEXTMODE
 70
     0
  9
$MIRRTEXT
 70
     1
  9
$DRAGMODE
 70
     2
  9
$LTSCALE
 40
1.0
  9
$OSMODE
 70
    37
  9
$ATTMODE
 70
     1
  9
$TEXTSIZE
 40
0.2
  9
$TRACEWID
 40
0.05
  9
$TEXTSTYLE
  7
STANDARD
  9
$CLAYER
  8
0
  9
$CELTYPE
  6
BYLAYER
  9
$CECOLOR
 62
   256
  9
$CELTSCALE
 40
1.0
  9
$DELOBJ
 70
     1
  9
$DISPSILH
 70
     0
  9
$DIMSCALE
 40
1.0
  9
$DIMASZ
 40
0.18
  9
$DIMEXO
 40
0.0625
  9
$DIMDLI
 40
0.38
  9
$DIMRND
 40
0.0
  9
$DIMDLE
 40
0.0
  9
$DIMEXE
 40
0.18
  9
$DIMTP
 40
0.0
  9
$DIMTM
 40
0.0
  9
$DIMTXT
 40
0.18
  9
$DIMCEN
 40
0.09
  9
$DIMTSZ
 40
0.0
  9
$DIMTOL
 70
     0
  9
$DIMLIM
 70
     0
  9
$DIMTIH
 70
     1
  9
$DIMTOH
 70
     1
  9
$DIMSE1
 70
     0
  9
$DIMSE2
 70
     0
  9
$DIMTAD
 70
     0
  9
$DIMZIN
 70
     0
  9
$DIMBLK
  1

  9
$DIMASO
 70
     1
  9
$DIMSHO
 70
     1
  9
$DIMPOST
  1

  9
$DIMAPOST
  1

  9
$DIMALT
 70
     0
  9
$DIMALTD
 70
     2
  9
$DIMALTF
 40
25.4
  9
$DIMLFAC
 40
1.0
  9
$DIMTOFL
 70
     0
  9
$DIMTVP
 40
0.0
  9
$DIMTIX
 70
     0
  9
$DIMSOXD
 70
     0
  9
$DIMSAH
 70
     0
  9
$DIMBLK1
  1

  9
$DIMBLK2
  1

  9
$DIMSTYLE
  2
STANDARD
  9
$DIMCLRD
 70
     0
  9
$DIMCLRE
 70
     0
  9
$DIMCLRT
 70
     0
  9
$DIMTFAC
 40
1.0
  9
$DIMGAP
 40
0.09
  9
$DIMJUST
 70
     0
  9
$DIMSD1
 70
     0
  9
$DIMSD2
 70
     0
  9
$DIMTOLJ
 70
     1
  9
$DIMTZIN
 70
     0
  9
$DIMALTZ
 70
     0
  9
$DIMALTTZ
 70
     0
  9
$DIMFIT
 70
     3
  9
$DIMUPT
 70
     0
  9
$DIMUNIT
 70
     2
  9
$DIMDEC
 70
     4
  9
$DIMTDEC
 70
     4
  9
$DIMALTU
 70
     2
  9
$DIMALTTD
 70
     2
  9
$DIMTXSTY
  7
STANDARD
  9
$DIMAUNIT
 70
     0
  9
$LUNITS
 70
     2
  9
$LUPREC
 70
     4
  9
$SKETCHINC
 40
0.1
  9
$FILLETRAD
 40
0.5
  9
$AUNITS
 70
     0
  9
$AUPREC
 70
     0
  9
$MENU
  1
.
  9
$ELEVATION
 40
0.0
  9
$PELEVATION
 40
0.0
  9
$THICKNESS
 40
0.0
  9
$LIMCHECK
 70
     0
  9
$CHAMFERA
 40
0.5
  9
$CHAMFERB
 40
0.5
  9
$CHAMFERC
 40
1.0
  9
$CHAMFERD
 40
0.0
  9
$SKPOLY
 70
     0
  9
$TDCREATE
 40
2458036.684594907
  9
$TDUPDATE
 40
2458036.684594919
  9
$TDINDWG
 40
0.0000000116
  9
$TDUSRTIMER
 40
0.0000000116
  9
$USRTIMER
 70
     1
  9
$ANGBASE
 50
0.0
  9
$ANGDIR
 70
     0
  9
$PDMODE
 70
     0
  9
$PDSIZE
 40
0.0
  9
$PLINEWID
 40
0.0
  9
$COORDS
 70
     1
  9
$SPLFRAME
 70
     0
  9
$SPLINETYPE
 70
     6
  9
$SPLINESEGS
 70
     8
  9
$ATTDIA
 70
     0
  9
$ATTREQ
 70
     1
  9
$HANDLING
 70
     1
  9
$HANDSEED
  5
31B
  9
$SURFTAB1
 70
     6
  9
$SURFTAB2
 70
     6
  9
$SURFTYPE
 70
     6
  9
$SURFU
 70
     6
  9
$SURFV
 70
     6
  9
$UCSNAME
  2

  9
$UCSORG
 10
0.0
 20
0.0
 30
0.0
  9
$UCSXDIR
 10
1.0
 20
0.0
 30
0.0
  9
$UCSYDIR
 10
0.0
 20
1.0
 30
0.0
  9
$PUCSNAME
  2

  9
$PUCSORG
 10
0.0
 20
0.0
 30
0.0
  9
$PUCSXDIR
 10
1.0
 20
0.0
 30
0.0
  9
$PUCSYDIR
 10
0.0
 20
1.0
 30
0.0
  9
$USERI1
 70
     0
  9
$USERI2
 70
     0
  9
$USERI3
 70
     0
  9
$USERI4
 70
     0
  9
$USERI5
 70
     0
  9
$USERR1
 40
0.0
  9
$USERR2
 40
0.0
  9
$USERR3
 40
0.0
  9
$USERR4
 40
0.0
  9
$USERR5
 40
0.0
  9
$WORLDVIEW
 70
     1
  9
$SHADEDGE
 70
     3
  9
$SHADEDIF
 70
    70
  9
$TILEMODE
 70
     1
  9
$MAXACTVP
 70
    64
  9
$PINSBASE
 10
0.0
 20
0.0
 30
0.0
  9
$PLIMCHECK
 70
     0
  9
$PEXTMIN
 10
1.000000000000000E+20
 20
1.000000000000000E+20
 30
1.000000000000000E+20
  9
$PEXTMAX
 10
-1.000000000000000E+20
 20
-1.000000000000000E+20
 30
-1.000000000000000E+20
  9
$PLIMMIN
 10
0.0
 20
0.0
  9
$PLIMMAX
 10
12.0
 20
9.0
  9
$UNITMODE
 70
     0
  9
$VISRETAIN
 70
     1
  9
$PLINEGEN
 70
     0
  9
$PSLTSCALE
 70
     1
  9
$TREEDEPTH
 70
  3020
  9
$PICKSTYLE
 70
     1
  9
$CMLSTYLE
  2
STANDARD
  9
$CMLJUST
 70
     0
  9
$CMLSCALE
 40
1.0
  9
$PROXYGRAPHICS
 70
     1
  9
$MEASUREMENT
 70
     0
  0
ENDSEC
  0
SECTION
  2
CLASSES
  0
CLASS
  1
ACDBDICTIONARYWDFLT
  2
AcDbDictionaryWithDefault
  3
ObjectDBX Classes
 90
        0
280
     0
281
     0
  0
CLASS
  1
VISUALSTYLE
  2
AcDbVisualStyle
  3
ObjectDBX Classes
 90
     4095
280
     0
281
     0
  0
CLASS
  1
XRECORD
  2
AcDbXrecord
  3
AutoCAD 2000
 90
        0
280
     0
281
     0
  0
CLASS
  1
LWPOLYLINE
  2
AcDbPolyline
  3
AutoCAD 2000
 90
        0
280
     0
281
     1
  0
CLASS
  1
HATCH
  2
AcDbHatch
  3
AutoCAD 2000
 90
        0
280
     0
281
     1
  0
CLASS
  1
ACDBPLACEHOLDER
  2
AcDbPlaceHolder
  3
ObjectDBX Classes
 90
        0
280
     0
281
     0
  0
CLASS
  1
LAYOUT
  2
AcDbLayout
  3
ObjectDBX Classes
 90
        0
280
     0
281
     0
  0
ENDSEC
  0
SECTION
  2
TABLES
  0
TABLE
  2
VPORT
  5
8
330
0
100
AcDbSymbolTable
 70
     1
  0
VPORT
  5
29
330
8
100
AcDbSymbolTableRecord
100
AcDbViewportTableRecord
  2
*ACTIVE
 70
     0
 10
0.0
 20
0.0
 11
1.0
 21
1.0
 12
0.0
 22
0.0
 13
0.0
 23
0.0
 14
0.5
 24
0.5
 15
0.5
 25
0.5
 16
0.0
 26
0.0
 36
1.0
 17
10.49514580985449
 27
14.834306725218
 37
0.0
 40
41.27004905232714
 41
0.7770768960432345
 42
50.0
 43
0.0
 44
0.0
 50
0.0
 51
0.0
 71
     0
 72
   100
 73
     1
 74
     3
 75
     0
 76
     0
 77
     0
 78
     0
  0
ENDTAB
  0
TABLE
  2
LTYPE
  5
5
330
0
100
AcDbSymbolTable
 70
     1
  0
LTYPE
  5
14
330
5
100
AcDbSymbolTableRecord
100
AcDbLinetypeTableRecord
  2
BYBLOCK
 70
     0
  3

 72
    65
 73
     0
 40
0.0
  0
LTYPE
  5
15
330
5
100
AcDbSymbolTableRecord
100
AcDbLinetypeTableRecord
  2
BYLAYER
 70
     0
  3

 72
    65
 73
     0
 40
0.0
  0
LTYPE
  5
16
330
5
100
AcDbSymbolTableRecord
100
AcDbLinetypeTableRecord
  2
CONTINUOUS
 70
     0
  3
Solid line
 72
    65
 73
     0
 40
0.0
  0
ENDTAB
  0
TABLE
  2
LAYER
  5
2
330
0
100
AcDbSymbolTable
 70
     2
  0
LAYER
  5
10
330
2
100
AcDbSymbolTableRecord
100
AcDbLayerTableRecord
  2
0
 70
     0
 62
     7
  6
CONTINUOUS
  0
LAYER
  5
3B
330
2
100
AcDbSymbolTableRecord
100
AcDbLayerTableRecord
  2
CALQUE_1
 70
     0
 62
     7
  6
CONTINUOUS
  0
ENDTAB
  0
TABLE
  2
STYLE
  5
3
330
0
100
AcDbSymbolTable
 70
     1
  0
STYLE
  5
11
330
3
100
AcDbSymbolTableRecord
100
AcDbTextStyleTableRecord
  2
STANDARD
 70
     0
 40
0.0
 41
1.0
 50
0.0
 71
     0
 42
0.2
  3
txt
  4

  0
ENDTAB
  0
TABLE
  2
VIEW
  5
6
330
0
100
AcDbSymbolTable
 70
     0
  0
ENDTAB
  0
TABLE
  2
UCS
  5
7
330
0
100
AcDbSymbolTable
 70
     0
  0
ENDTAB
  0
TABLE
  2
APPID
  5
9
330
0
100
AcDbSymbolTable
 70
     1
  0
APPID
  5
12
330
9
100
AcDbSymbolTableRecord
100
AcDbRegAppTableRecord
  2
ACAD
 70
     0
  0
ENDTAB
  0
TABLE
  2
DIMSTYLE
  5
A
330
0
100
AcDbSymbolTable
 70
     1
  0
DIMSTYLE
105
27
330
A
100
AcDbSymbolTableRecord
100
AcDbDimStyleTableRecord
  2
STANDARD
 70
     0
  3

  4

  5

  6

  7

 40
1.0
 41
0.18
 42
0.0625
 43
0.38
 44
0.18
 45
0.0
 46
0.0
 47
0.0
 48
0.0
140
0.18
141
0.09
142
0.0
143
25.4
144
1.0
145
0.0
146
1.0
147
0.09
 71
     0
 72
     0
 73
     1
 74
     1
 75
     0
 76
     0
 77
     0
 78
     0
170
     0
171
     2
172
     0
173
     0
174
     0
175
     0
176
     0
177
     0
178
     0
270
     2
271
     4
272
     4
273
     2
274
     2
340
11
275
     0
280
     0
281
     0
282
     0
283
     1
284
     0
285
     0
286
     0
287
     3
288
     0
  0
ENDTAB
  0
TABLE
  2
BLOCK_RECORD
  5
1
330
0
100
AcDbSymbolTable
 70
     4
  0
BLOCK_RECORD
  5
1F
330
1
100
AcDbSymbolTableRecord
100
AcDbBlockTableRecord
  2
*MODEL_SPACE
  0
BLOCK_RECORD
  5
1B
330
1
100
AcDbSymbolTableRecord
100
AcDbBlockTableRecord
  2
*PAPER_SPACE
  0
BLOCK_RECORD
  5
191
330
1
100
AcDbSymbolTableRecord
100
AcDbBlockTableRecord
  2
BLOCK_2
  0
BLOCK_RECORD
  5
22C
330
1
100
AcDbSymbolTableRecord
100
AcDbBlockTableRecord
  2
BLOCK_3
  0
BLOCK_RECORD
  5
297
330
1
100
AcDbSymbolTableRecord
100
AcDbBlockTableRecord
  2
BLOCK_4
  0
ENDTAB
  0
ENDSEC
  0
SECTION
  2
BLOCKS
  0
BLOCK
  5
20
330
1F
100
AcDbEntity
  8
0
100
AcDbBlockBegin
  2
*MODEL_SPACE
 70
     0
 71
     0
 10
0.0
 20
0.0
 30
0.0
  3
*MODEL_SPACE
  1

  0
ENDBLK
  5
21
330
1F
100
AcDbEntity
  8
0
100
AcDbBlockEnd
  0
BLOCK
  5
1C
330
1B
100
AcDbEntity
 67
     1
  8
0
100
AcDbBlockBegin
  2
*PAPER_SPACE
 70
     0
 71
     0
 10
0.0
 20
0.0
 30
0.0
  3
*PAPER_SPACE
  1

  0
ENDBLK
  5
1D
330
1B
100
AcDbEntity
 67
     1
  8
0
100
AcDbBlockEnd
  0
BLOCK
  5
193
330
191
100
AcDbEntity
  8
0
100
AcDbBlockBegin
  2
BLOCK_2
 70
     0
 71
     0
 10
0.0
 20
0.0
 30
0.0
  3
BLOCK_2
  1

  0
POLYLINE
  5
195
330
191
100
AcDbEntity
  8
CALQUE_1
 62
     7
100
AcDb2dPolyline
 66
     1
 10
0.0
 20
0.0
 30
0.0
  0
VERTEX
  5
196
330
195
100
AcDbEntity
  8
CALQUE_1
 62
     7
100
AcDbVertex
100
AcDb2dVertex
 10
21.39515950822463
 20
14.83433256345118
 30
0.0
  0
VERTEX
  5
197
330
195
100
AcDbEntity
  8
CALQUE_1
 62
     7
100
AcDbVertex
100
AcDb2dVertex
 10
21.84515817736959
 20
14.83433256345118
 30
0.0
  0
VERTEX
  5
198
330
195
100
AcDbEntity
  8
CALQUE_1
 62
     7
100
AcDbVertex
100
AcDb2dVertex
 10
21.84515817736959
 20
14.53431622519909
 30
0.0
  0
VERTEX
  5
199
330
195
100
AcDbEntity
  8
CALQUE_1
 62
     7
100
AcDbVertex
100
AcDb2dVertex
 10
22.59515595927785
 20
14.53431622519909
 30
0.0
  0
VERTEX
  5
19A
330
195
100
AcDbEntity
  8
CALQUE_1
 62
     7
100
AcDbVertex
100
AcDb2dVertex
 10
22.59515595927785
 20
14.83433256345118
 30
0.0
  0
VERTEX
  5
19B
330
195
100
AcDbEntity
  8
CALQUE_1
 62
     7
100
AcDbVertex
100
AcDb2dVertex
 10
23.19515418480445
 20
14.83433256345118
 30
0.0
  0
VERTEX
  5
19C
330
195
100
AcDbEntity
  8
CALQUE_1
 62
     7
100
AcDbVertex
100
AcDb2dVertex
 10
23.19515418480445
 20
14.53431622519909
 30
0.0
  0
VERTEX
  5
19D
330
195
100
AcDbEntity
  8
CALQUE_1
 62
     7
100
AcDbVertex
100
AcDb2dVertex
 10
23.79515241033106
 20
14.53431622519909
 30
0.0
  0
VERTEX
  5
19E
330
195
100
AcDbEntity
  8
CALQUE_1
 62
     7
100
AcDbVertex
100
AcDb2dVertex
 10
23.79515241033106
 20
14.83433256345118
 30
0.0
  0
VERTEX
  5
19F
330
195
100
AcDbEntity
  8
CALQUE_1
 62
     7
100
AcDbVertex
100
AcDb2dVertex
 10
24.39515063585767
 20
14.83433256345118
 30
0.0
  0
VERTEX
  5
1A0
330
195
100
AcDbEntity
  8
CALQUE_1
 62
     7
100
AcDbVertex
100
AcDb2dVertex
 10
24.39515063585767
 20
14.53431622519909
 30
0.0
  0
VERTEX
  5
1A1
330
195
100
AcDbEntity
  8
CALQUE_1
 62
     7
100
AcDbVertex
100
AcDb2dVertex
 10
25.14514841776593
 20
14.53431622519909
 30
0.0
  0
VERTEX
  5
1A2
330
195
100
AcDbEntity
  8
CALQUE_1
 62
     7
100
AcDbVertex
100
AcDb2dVertex
 10
25.14514841776593
 20
14.83433256345118
 30
0.0
  0
VERTEX
  5
1A3
330
195
100
AcDbEntity
  8
CALQUE_1
 62
     7
100
AcDbVertex
100
AcDb2dVertex
 10
25.59514708691088
 20
14.83433256345118
 30
0.0
  0
VERTEX
  5
1A4
330
195
100
AcDbEntity
  8
CALQUE_1
 62
     7
100
AcDbVertex
100
AcDb2dVertex
 10
25.59514708691088
 20
13.88429518022688
 30
0.0
  0
VERTEX
  5
1A5
330
195
100
AcDbEntity
  8
CALQUE_1
 62
     7
100
AcDbVertex
100
AcDb2dVertex
 10
25.89514619967419
 20
13.88429518022688
 30
0.0
  0
VERTEX
  5
1A6
330
195
100
AcDbEntity
  8
CALQUE_1
 62
     7
100
AcDbVertex
100
AcDb2dVertex
 10
25.89514619967419
 20
12.93434392444652
 30
0.0
  0
VERTEX
  5
1A7
330
195
100
AcDbEntity
  8
CALQUE_1
 62
     7
100
AcDbVertex
100
AcDb2dVertex
 10
25.59514708691088
 20
12.93434392444652
 30
0.0
  0
VERTEX
  5
1A8
330
195
100
AcDbEntity
  8
CALQUE_1
 62
     7
100
AcDbVertex
100
AcDb2dVertex
 10
25.59514708691088
 20
12.33434569891991
 30
0.0
  0
VERTEX
  5
1A9
330
195
100
AcDbEntity
  8
CALQUE_1
 62
     7
100
AcDbVertex
100
AcDb2dVertex
 10
25.89514619967419
 20
12.33434569891991
 30
0.0
  0
VERTEX
  5
1AA
330
195
100
AcDbEntity
  8
CALQUE_1
 62
     7
100
AcDbVertex
100
AcDb2dVertex
 10
25.89514619967419
 20
11.73434747339331
 30
0.0
  0
VERTEX
  5
1AB
330
195
100
AcDbEntity
  8
CALQUE_1
 62
     7
100
AcDbVertex
100
AcDb2dVertex
 10
25.59514708691088
 20
11.73434747339331
 30
0.0
  0
VERTEX
  5
1AC
330
195
100
AcDbEntity
  8
CALQUE_1
 62
     7
100
AcDbVertex
100
AcDb2dVertex
 10
25.59514708691088
 20
11.1343492478667
 30
0.0
  0
VERTEX
  5
1AD
330
195
100
AcDbEntity
  8
CALQUE_1
 62
     7
100
AcDbVertex
100
AcDb2dVertex
 10
25.89514619967419
 20
11.1343492478667
 30
0.0
  0
VERTEX
  5
1AE
330
195
100
AcDbEntity
  8
CALQUE_1
 62
     7
100
AcDbVertex
100
AcDb2dVertex
 10
25.89514619967419
 20
10.53428212038493
 30
0.0
  0
VERTEX
  5
1AF
330
195
100
AcDbEntity
  8
CALQUE_1
 62
     7
100
AcDbVertex
100
AcDb2dVertex
 10
25.59514708691088
 20
10.53428212038493
 30
0.0
  0
VERTEX
  5
1B0
330
195
100
AcDbEntity
  8
CALQUE_1
 62
     7
100
AcDbVertex
100
AcDb2dVertex
 10
25.59514708691088
 20
9.934283894858325
 30
0.0
  0
VERTEX
  5
1B1
330
195
100
AcDbEntity
  8
CALQUE_1
 62
     7
100
AcDbVertex
100
AcDb2dVertex
 10
25.89514619967419
 20
9.934283894858325
 30
0.0
  0
VERTEX
  5
1B2
330
195
100
AcDbEntity
  8
CALQUE_1
 62
     7
100
AcDbVertex
100
AcDb2dVertex
 10
25.89514619967419
 20
9.334285669331717
 30
0.0
  0
VERTEX
  5
1B3
330
195
100
AcDbEntity
  8
CALQUE_1
 62
     7
100
AcDbVertex
100
AcDb2dVertex
 10
25.59514708691088
 20
9.334285669331717
 30
0.0
  0
VERTEX
  5
1B4
330
195
100
AcDbEntity
  8
CALQUE_1
 62
     7
100
AcDbVertex
100
AcDb2dVertex
 10
25.59514708691088
 20
8.734287443805108
 30
0.0
  0
VERTEX
  5
1B5
330
195
100
AcDbEntity
  8
CALQUE_1
 62
     7
100
AcDbVertex
100
AcDb2dVertex
 10
25.89514619967419
 20
8.734287443805108
 30
0.0
  0
VERTEX
  5
1B6
330
195
100
AcDbEntity
  8
CALQUE_1
 62
     7
100
AcDbVertex
100
AcDb2dVertex
 10
25.89514619967419
 20
8.134289218278502
 30
0.0
  0
VERTEX
  5
1B7
330
195
100
AcDbEntity
  8
CALQUE_1
 62
     7
100
AcDbVertex
100
AcDb2dVertex
 10
25.59514708691088
 20
8.134289218278502
 30
0.0
  0
VERTEX
  5
1B8
330
195
100
AcDbEntity
  8
CALQUE_1
 62
     7
100
AcDbVertex
100
AcDb2dVertex
 10
25.59514708691088
 20
7.534290992751894
 30
0.0
  0
VERTEX
  5
1B9
330
195
100
AcDbEntity
  8
CALQUE_1
 62
     7
100
AcDbVertex
100
AcDb2dVertex
 10
25.89514619967419
 20
7.534290992751894
 30
0.0
  0
VERTEX
  5
1BA
330
195
100
AcDbEntity
  8
CALQUE_1
 62
     7
100
AcDbVertex
100
AcDb2dVertex
 10
25.89514619967419
 20
6.934292767225286
 30
0.0
  0
VERTEX
  5
1BB
330
195
100
AcDbEntity
  8
CALQUE_1
 62
     7
100
AcDbVertex
100
AcDb2dVertex
 10
25.59514708691088
 20
6.934292767225286
 30
0.0
  0
VERTEX
  5
1BC
330
195
100
AcDbEntity
  8
CALQUE_1
 62
     7
100
AcDbVertex
100
AcDb2dVertex
 10
25.59514708691088
 20
6.334294541698679
 30
0.0
  0
VERTEX
  5
1BD
330
195
100
AcDbEntity
  8
CALQUE_1
 62
     7
100
AcDbVertex
100
AcDb2dVertex
 10
25.89514619967419
 20
6.334294541698679
 30
0.0
  0
VERTEX
  5
1BE
330
195
100
AcDbEntity
  8
CALQUE_1
 62
     7
100
AcDbVertex
100
AcDb2dVertex
 10
25.89514619967419
 20
5.734296316172071
 30
0.0
  0
VERTEX
  5
1BF
330
195
100
AcDbEntity
  8
CALQUE_1
 62
     7
100
AcDbVertex
100
AcDb2dVertex
 10
25.59514708691088
 20
5.734296316172071
 30
0.0
  0
VERTEX
  5
1C0
330
195
100
AcDbEntity
  8
CALQUE_1
 62
     7
100
AcDbVertex
100
AcDb2dVertex
 10
25.59514708691088
 20
5.134298090645463
 30
0.0
  0
VERTEX
  5
1C1
330
195
100
AcDbEntity
  8
CALQUE_1
 62
     7
100
AcDbVertex
100
AcDb2dVertex
 10
25.89514619967419
 20
5.134298090645463
 30
0.0
  0
VERTEX
  5
1C2
330
195
100
AcDbEntity
  8
CALQUE_1
 62
     7
100
AcDbVertex
100
AcDb2dVertex
 10
25.89514619967419
 20
4.534299865118856
 30
0.0
  0
VERTEX
  5
1C3
330
195
100
AcDbEntity
  8
CALQUE_1
 62
     7
100
AcDbVertex
100
AcDb2dVertex
 10
25.59514708691088
 20
4.534299865118856
 30
0.0
  0
VERTEX
  5
1C4
330
195
100
AcDbEntity
  8
CALQUE_1
 62
     7
100
AcDbVertex
100
AcDb2dVertex
 10
25.59514708691088
 20
3.934301639592248
 30
0.0
  0
VERTEX
  5
1C5
330
195
100
AcDbEntity
  8
CALQUE_1
 62
     7
100
AcDbVertex
100
AcDb2dVertex
 10
25.89514619967419
 20
3.934301639592248
 30
0.0
  0
VERTEX
  5
1C6
330
195
100
AcDbEntity
  8
CALQUE_1
 62
     7
100
AcDbVertex
100
AcDb2dVertex
 10
25.89514619967419
 20
3.33430341406564
 30
0.0
  0
VERTEX
  5
1C7
330
195
100
AcDbEntity
  8
CALQUE_1
 62
     7
100
AcDbVertex
100
AcDb2dVertex
 10
25.59514708691088
 20
3.33430341406564
 30
0.0
  0
VERTEX
  5
1C8
330
195
100
AcDbEntity
  8
CALQUE_1
 62
     7
100
AcDbVertex
100
AcDb2dVertex
 10
25.59514708691088
 20
2.734305188539033
 30
0.0
  0
VERTEX
  5
1C9
330
195
100
AcDbEntity
  8
CALQUE_1
 62
     7
100
AcDbVertex
100
AcDb2dVertex
 10
25.89514619967419
 20
2.734305188539033
 30
0.0
  0
VERTEX
  5
1CA
330
195
100
AcDbEntity
  8
CALQUE_1
 62
     7
100
AcDbVertex
100
AcDb2dVertex
 10
25.89514619967419
 20
2.134306963012425
 30
0.0
  0
VERTEX
  5
1CB
330
195
100
AcDbEntity
  8
CALQUE_1
 62
     7
100
AcDbVertex
100
AcDb2dVertex
 10
25.59514708691088
 20
2.134306963012425
 30
0.0
  0
VERTEX
  5
1CC
330
195
100
AcDbEntity
  8
CALQUE_1
 62
     7
100
AcDbVertex
100
AcDb2dVertex
 10
25.59514708691088
 20
1.534308737485818
 30
0.0
  0
VERTEX
  5
1CD
330
195
100
AcDbEntity
  8
CALQUE_1
 62
     7
100
AcDbVertex
100
AcDb2dVertex
 10
25.89514619967419
 20
1.534308737485818
 30
0.0
  0
VERTEX
  5
1CE
330
195
100
AcDbEntity
  8
CALQUE_1
 62
     7
100
AcDbVertex
100
AcDb2dVertex
 10
25.89514619967419
 20
0.9343105119592099
 30
0.0
  0
VERTEX
  5
1CF
330
195
100
AcDbEntity
  8
CALQUE_1
 62
     7
100
AcDbVertex
100
AcDb2dVertex
 10
25.59514708691088
 20
0.9343105119592099
 30
0.0
  0
VERTEX
  5
1D0
330
195
100
AcDbEntity
  8
CALQUE_1
 62
     7
100
AcDbVertex
100
AcDb2dVertex
 10
25.59514708691088
 20
0.3343122864326022
 30
0.0
  0
VERTEX
  5
1D1
330
195
100
AcDbEntity
  8
CALQUE_1
 62
     7
100
AcDbVertex
100
AcDb2dVertex
 10
25.89514619967419
 20
0.3343122864326022
 30
0.0
  0
VERTEX
  5
1D2
330
195
100
AcDbEntity
  8
CALQUE_1
 62
     7
100
AcDbVertex
100
AcDb2dVertex
 10
25.89514619967419
 20
-0.2656859390940054
 30
0.0
  0
VERTEX
  5
1D3
330
195
100
AcDbEntity
  8
CALQUE_1
 62
     7
100
AcDbVertex
100
AcDb2dVertex
 10
25.59514708691088
 20
-0.2656859390940054
 30
0.0
  0
VERTEX
  5
1D4
330
195
100
AcDbEntity
  8
CALQUE_1
 62
     7
100
AcDbVertex
100
AcDb2dVertex
 10
25.59514708691088
 20
-0.865684164620613
 30
0.0
  0
VERTEX
  5
1D5
330
195
100
AcDbEntity
  8
CALQUE_1
 62
     7
100
AcDbVertex
100
AcDb2dVertex
 10
25.89514619967419
 20
-0.865684164620613
 30
0.0
  0
VERTEX
  5
1D6
330
195
100
AcDbEntity
  8
CALQUE_1
 62
     7
100
AcDbVertex
100
AcDb2dVertex
 10
25.89514619967419
 20
-1.465682390147221
 30
0.0
  0
VERTEX
  5
1D7
330
195
100
AcDbEntity
  8
CALQUE_1
 62
     7
100
AcDbVertex
100
AcDb2dVertex
 10
25.59514708691088
 20
-1.465682390147221
 30
0.0
  0
VERTEX
  5
1D8
330
195
100
AcDbEntity
  8
CALQUE_1
 62
     7
100
AcDbVertex
100
AcDb2dVertex
 10
25.59514708691088
 20
-2.065680615673828
 30
0.0
  0
VERTEX
  5
1D9
330
195
100
AcDbEntity
  8
CALQUE_1
 62
     7
100
AcDbVertex
100
AcDb2dVertex
 10
25.89514619967419
 20
-2.065680615673828
 30
0.0
  0
VERTEX
  5
1DA
330
195
100
AcDbEntity
  8
CALQUE_1
 62
     7
100
AcDbVertex
100
AcDb2dVertex
 10
25.89514619967419
 20
-2.665678841200436
 30
0.0
  0
VERTEX
  5
1DB
330
195
100
AcDbEntity
  8
CALQUE_1
 62
     7
100
AcDbVertex
100
AcDb2dVertex
 10
25.59514708691088
 20
-2.665678841200436
 30
0.0
  0
VERTEX
  5
1DC
330
195
100
AcDbEntity
  8
CALQUE_1
 62
     7
100
AcDbVertex
100
AcDb2dVertex
 10
25.59514708691088
 20
-3.265677066727044
 30
0.0
  0
VERTEX
  5
1DD
330
195
100
AcDbEntity
  8
CALQUE_1
 62
     7
100
AcDbVertex
100
AcDb2dVertex
 10
25.89514619967419
 20
-3.265677066727044
 30
0.0
  0
VERTEX
  5
1DE
330
195
100
AcDbEntity
  8
CALQUE_1
 62
     7
100
AcDbVertex
100
AcDb2dVertex
 10
25.89514619967419
 20
-4.215697224462558
 30
0.0
  0
VERTEX
  5
1DF
330
195
100
AcDbEntity
  8
CALQUE_1
 62
     7
100
AcDbVertex
100
AcDb2dVertex
 10
25.59514708691088
 20
-4.215697224462558
 30
0.0
  0
VERTEX
  5
1E0
330
195
100
AcDbEntity
  8
CALQUE_1
 62
     7
100
AcDbVertex
100
AcDb2dVertex
 10
25.59514708691088
 20
-5.165717382198074
 30
0.0
  0
VERTEX
  5
1E1
330
195
100
AcDbEntity
  8
CALQUE_1
 62
     7
100
AcDbVertex
100
AcDb2dVertex
 10
25.14514841776593
 20
-5.165717382198074
 30
0.0
  0
VERTEX
  5
1E2
330
195
100
AcDbEntity
  8
CALQUE_1
 62
     7
100
AcDbVertex
100
AcDb2dVertex
 10
25.14514841776593
 20
-4.86571826943477
 30
0.0
  0
VERTEX
  5
1E3
330
195
100
AcDbEntity
  8
CALQUE_1
 62
     7
100
AcDbVertex
100
AcDb2dVertex
 10
24.39515063585767
 20
-4.86571826943477
 30
0.0
  0
VERTEX
  5
1E4
330
195
100
AcDbEntity
  8
CALQUE_1
 62
     7
100
AcDbVertex
100
AcDb2dVertex
 10
24.39515063585767
 20
-5.165717382198074
 30
0.0
  0
VERTEX
  5
1E5
330
195
100
AcDbEntity
  8
CALQUE_1
 62
     7
100
AcDbVertex
100
AcDb2dVertex
 10
23.79515241033106
 20
-5.165717382198074
 30
0.0
  0
VERTEX
  5
1E6
330
195
100
AcDbEntity
  8
CALQUE_1
 62
     7
100
AcDbVertex
100
AcDb2dVertex
 10
23.79515241033106
 20
-4.86571826943477
 30
0.0
  0
VERTEX
  5
1E7
330
195
100
AcDbEntity
  8
CALQUE_1
 62
     7
100
AcDbVertex
100
AcDb2dVertex
 10
23.19515418480445
 20
-4.86571826943477
 30
0.0
  0
VERTEX
  5
1E8
330
195
100
AcDbEntity
  8
CALQUE_1
 62
     7
100
AcDbVertex
100
AcDb2dVertex
 10
23.19515418480445
 20
-5.165717382198074
 30
0.0
  0
VERTEX
  5
1E9
330
195
100
AcDbEntity
  8
CALQUE_1
 62
     7
100
AcDbVertex
100
AcDb2dVertex
 10
22.59515595927785
 20
-5.165717382198074
 30
0.0
  0
VERTEX
  5
1EA
330
195
100
AcDbEntity
  8
CALQUE_1
 62
     7
100
AcDbVertex
100
AcDb2dVertex
 10
22.59515595927785
 20
-4.86571826943477
 30
0.0
  0
VERTEX
  5
1EB
330
195
100
AcDbEntity
  8
CALQUE_1
 62
     7
100
AcDbVertex
100
AcDb2dVertex
 10
21.84515817736959
 20
-4.86571826943477
 30
0.0
  0
VERTEX
  5
1EC
330
195
100
AcDbEntity
  8
CALQUE_1
 62
     7
100
AcDbVertex
100
AcDb2dVertex
 10
21.84515817736959
 20
-5.165717382198074
 30
0.0
  0
VERTEX
  5
1ED
330
195
100
AcDbEntity
  8
CALQUE_1
 62
     7
100
AcDbVertex
100
AcDb2dVertex
 10
21.39515950822463
 20
-5.165717382198074
 30
0.0
  0
VERTEX
  5
1EE
330
195
100
AcDbEntity
  8
CALQUE_1
 62
     7
100
AcDbVertex
100
AcDb2dVertex
 10
21.39515950822463
 20
-4.215697224462558
 30
0.0
  0
VERTEX
  5
1EF
330
195
100
AcDbEntity
  8
CALQUE_1
 62
     7
100
AcDbVertex
100
AcDb2dVertex
 10
21.09516039546133
 20
-4.215697224462558
 30
0.0
  0
VERTEX
  5
1F0
330
195
100
AcDbEntity
  8
CALQUE_1
 62
     7
100
AcDbVertex
100
AcDb2dVertex
 10
21.09516039546133
 20
-3.265677066727044
 30
0.0
  0
VERTEX
  5
1F1
330
195
100
AcDbEntity
  8
CALQUE_1
 62
     7
100
AcDbVertex
100
AcDb2dVertex
 10
21.39515950822463
 20
-3.265677066727044
 30
0.0
  0
VERTEX
  5
1F2
330
195
100
AcDbEntity
  8
CALQUE_1
 62
     7
100
AcDbVertex
100
AcDb2dVertex
 10
21.39515950822463
 20
-2.665678841200436
 30
0.0
  0
VERTEX
  5
1F3
330
195
100
AcDbEntity
  8
CALQUE_1
 62
     7
100
AcDbVertex
100
AcDb2dVertex
 10
21.09516039546133
 20
-2.665678841200436
 30
0.0
  0
VERTEX
  5
1F4
330
195
100
AcDbEntity
  8
CALQUE_1
 62
     7
100
AcDbVertex
100
AcDb2dVertex
 10
21.09516039546133
 20
-2.065680615673828
 30
0.0
  0
VERTEX
  5
1F5
330
195
100
AcDbEntity
  8
CALQUE_1
 62
     7
100
AcDbVertex
100
AcDb2dVertex
 10
21.39515950822463
 20
-2.065680615673828
 30
0.0
  0
VERTEX
  5
1F6
330
195
100
AcDbEntity
  8
CALQUE_1
 62
     7
100
AcDbVertex
100
AcDb2dVertex
 10
21.39515950822463
 20
-1.465682390147221
 30
0.0
  0
VERTEX
  5
1F7
330
195
100
AcDbEntity
  8
CALQUE_1
 62
     7
100
AcDbVertex
100
AcDb2dVertex
 10
21.09516039546133
 20
-1.465682390147221
 30
0.0
  0
VERTEX
  5
1F8
330
195
100
AcDbEntity
  8
CALQUE_1
 62
     7
100
AcDbVertex
100
AcDb2dVertex
 10
21.09516039546133
 20
-0.865684164620613
 30
0.0
  0
VERTEX
  5
1F9
330
195
100
AcDbEntity
  8
CALQUE_1
 62
     7
100
AcDbVertex
100
AcDb2dVertex
 10
21.39515950822463
 20
-0.865684164620613
 30
0.0
  0
VERTEX
  5
1FA
330
195
100
AcDbEntity
  8
CALQUE_1
 62
     7
100
AcDbVertex
100
AcDb2dVertex
 10
21.39515950822463
 20
-0.2656859390940054
 30
0.0
  0
VERTEX
  5
1FB
330
195
100
AcDbEntity
  8
CALQUE_1
 62
     7
100
AcDbVertex
100
AcDb2dVertex
 10
21.09516039546133
 20
-0.2656859390940054
 30
0.0
  0
VERTEX
  5
1FC
330
195
100
AcDbEntity
  8
CALQUE_1
 62
     7
100
AcDbVertex
100
AcDb2dVertex
 10
21.09516039546133
 20
0.3343122864326022
 30
0.0
  0
VERTEX
  5
1FD
330
195
100
AcDbEntity
  8
CALQUE_1
 62
     7
100
AcDbVertex
100
AcDb2dVertex
 10
21.39515950822463
 20
0.3343122864326022
 30
0.0
  0
VERTEX
  5
1FE
330
195
100
AcDbEntity
  8
CALQUE_1
 62
     7
100
AcDbVertex
100
AcDb2dVertex
 10
21.39515950822463
 20
0.9343105119592099
 30
0.0
  0
VERTEX
  5
1FF
330
195
100
AcDbEntity
  8
CALQUE_1
 62
     7
100
AcDbVertex
100
AcDb2dVertex
 10
21.09516039546133
 20
0.9343105119592099
 30
0.0
  0
VERTEX
  5
200
330
195
100
AcDbEntity
  8
CALQUE_1
 62
     7
100
AcDbVertex
100
AcDb2dVertex
 10
21.09516039546133
 20
1.534308737485818
 30
0.0
  0
VERTEX
  5
201
330
195
100
AcDbEntity
  8
CALQUE_1
 62
     7
100
AcDbVertex
100
AcDb2dVertex
 10
21.39515950822463
 20
1.534308737485818
 30
0.0
  0
VERTEX
  5
202
330
195
100
AcDbEntity
  8
CALQUE_1
 62
     7
100
AcDbVertex
100
AcDb2dVertex
 10
21.39515950822463
 20
2.134306963012425
 30
0.0
  0
VERTEX
  5
203
330
195
100
AcDbEntity
  8
CALQUE_1
 62
     7
100
AcDbVertex
100
AcDb2dVertex
 10
21.09516039546133
 20
2.134306963012425
 30
0.0
  0
VERTEX
  5
204
330
195
100
AcDbEntity
  8
CALQUE_1
 62
     7
100
AcDbVertex
100
AcDb2dVertex
 10
21.09516039546133
 20
2.734305188539033
 30
0.0
  0
VERTEX
  5
205
330
195
100
AcDbEntity
  8
CALQUE_1
 62
     7
100
AcDbVertex
100
AcDb2dVertex
 10
21.39515950822463
 20
2.734305188539033
 30
0.0
  0
VERTEX
  5
206
330
195
100
AcDbEntity
  8
CALQUE_1
 62
     7
100
AcDbVertex
100
AcDb2dVertex
 10
21.39515950822463
 20
3.33430341406564
 30
0.0
  0
VERTEX
  5
207
330
195
100
AcDbEntity
  8
CALQUE_1
 62
     7
100
AcDbVertex
100
AcDb2dVertex
 10
21.09516039546133
 20
3.33430341406564
 30
0.0
  0
VERTEX
  5
208
330
195
100
AcDbEntity
  8
CALQUE_1
 62
     7
100
AcDbVertex
100
AcDb2dVertex
 10
21.09516039546133
 20
3.934301639592248
 30
0.0
  0
VERTEX
  5
209
330
195
100
AcDbEntity
  8
CALQUE_1
 62
     7
100
AcDbVertex
100
AcDb2dVertex
 10
21.39515950822463
 20
3.934301639592248
 30
0.0
  0
VERTEX
  5
20A
330
195
100
AcDbEntity
  8
CALQUE_1
 62
     7
100
AcDbVertex
100
AcDb2dVertex
 10
21.39515950822463
 20
4.534299865118856
 30
0.0
  0
VERTEX
  5
20B
330
195
100
AcDbEntity
  8
CALQUE_1
 62
     7
100
AcDbVertex
100
AcDb2dVertex
 10
21.09516039546133
 20
4.534299865118856
 30
0.0
  0
VERTEX
  5
20C
330
195
100
AcDbEntity
  8
CALQUE_1
 62
     7
100
AcDbVertex
100
AcDb2dVertex
 10
21.09516039546133
 20
5.134298090645463
 30
0.0
  0
VERTEX
  5
20D
330
195
100
AcDbEntity
  8
CALQUE_1
 62
     7
100
AcDbVertex
100
AcDb2dVertex
 10
21.39515950822463
 20
5.134298090645463
 30
0.0
  0
VERTEX
  5
20E
330
195
100
AcDbEntity
  8
CALQUE_1
 62
     7
100
AcDbVertex
100
AcDb2dVertex
 10
21.39515950822463
 20
5.734296316172071
 30
0.0
  0
VERTEX
  5
20F
330
195
100
AcDbEntity
  8
CALQUE_1
 62
     7
100
AcDbVertex
100
AcDb2dVertex
 10
21.09516039546133
 20
5.734296316172071
 30
0.0
  0
VERTEX
  5
210
330
195
100
AcDbEntity
  8
CALQUE_1
 62
     7
100
AcDbVertex
100
AcDb2dVertex
 10
21.09516039546133
 20
6.334294541698679
 30
0.0
  0
VERTEX
  5
211
330
195
100
AcDbEntity
  8
CALQUE_1
 62
     7
100
AcDbVertex
100
AcDb2dVertex
 10
21.39515950822463
 20
6.334294541698679
 30
0.0
  0
VERTEX
  5
212
330
195
100
AcDbEntity
  8
CALQUE_1
 62
     7
100
AcDbVertex
100
AcDb2dVertex
 10
21.39515950822463
 20
6.934292767225286
 30
0.0
  0
VERTEX
  5
213
330
195
100
AcDbEntity
  8
CALQUE_1
 62
     7
100
AcDbVertex
100
AcDb2dVertex
 10
21.09516039546133
 20
6.934292767225286
 30
0.0
  0
VERTEX
  5
214
330
195
100
AcDbEntity
  8
CALQUE_1
 62
     7
100
AcDbVertex
100
AcDb2dVertex
 10
21.09516039546133
 20
7.534290992751894
 30
0.0
  0
VERTEX
  5
215
330
195
100
AcDbEntity
  8
CALQUE_1
 62
     7
100
AcDbVertex
100
AcDb2dVertex
 10
21.39515950822463
 20
7.534290992751894
 30
0.0
  0
VERTEX
  5
216
330
195
100
AcDbEntity
  8
CALQUE_1
 62
     7
100
AcDbVertex
100
AcDb2dVertex
 10
21.39515950822463
 20
8.134289218278502
 30
0.0
  0
VERTEX
  5
217
330
195
100
AcDbEntity
  8
CALQUE_1
 62
     7
100
AcDbVertex
100
AcDb2dVertex
 10
21.09516039546133
 20
8.134289218278502
 30
0.0
  0
VERTEX
  5
218
330
195
100
AcDbEntity
  8
CALQUE_1
 62
     7
100
AcDbVertex
100
AcDb2dVertex
 10
21.09516039546133
 20
8.734287443805108
 30
0.0
  0
VERTEX
  5
219
330
195
100
AcDbEntity
  8
CALQUE_1
 62
     7
100
AcDbVertex
100
AcDb2dVertex
 10
21.39515950822463
 20
8.734287443805108
 30
0.0
  0
VERTEX
  5
21A
330
195
100
AcDbEntity
  8
CALQUE_1
 62
     7
100
AcDbVertex
100
AcDb2dVertex
 10
21.39515950822463
 20
9.334285669331717
 30
0.0
  0
VERTEX
  5
21B
330
195
100
AcDbEntity
  8
CALQUE_1
 62
     7
100
AcDbVertex
100
AcDb2dVertex
 10
21.09516039546133
 20
9.334285669331717
 30
0.0
  0
VERTEX
  5
21C
330
195
100
AcDbEntity
  8
CALQUE_1
 62
     7
100
AcDbVertex
100
AcDb2dVertex
 10
21.09516039546133
 20
9.934283894858325
 30
0.0
  0
VERTEX
  5
21D
330
195
100
AcDbEntity
  8
CALQUE_1
 62
     7
100
AcDbVertex
100
AcDb2dVertex
 10
21.39515950822463
 20
9.934283894858325
 30
0.0
  0
VERTEX
  5
21E
330
195
100
AcDbEntity
  8
CALQUE_1
 62
     7
100
AcDbVertex
100
AcDb2dVertex
 10
21.39515950822463
 20
10.53428212038493
 30
0.0
  0
VERTEX
  5
21F
330
195
100
AcDbEntity
  8
CALQUE_1
 62
     7
100
AcDbVertex
100
AcDb2dVertex
 10
21.09516039546133
 20
10.53428212038493
 30
0.0
  0
VERTEX
  5
220
330
195
100
AcDbEntity
  8
CALQUE_1
 62
     7
100
AcDbVertex
100
AcDb2dVertex
 10
21.09516039546133
 20
11.1343492478667
 30
0.0
  0
VERTEX
  5
221
330
195
100
AcDbEntity
  8
CALQUE_1
 62
     7
100
AcDbVertex
100
AcDb2dVertex
 10
21.39515950822463
 20
11.1343492478667
 30
0.0
  0
VERTEX
  5
222
330
195
100
AcDbEntity
  8
CALQUE_1
 62
     7
100
AcDbVertex
100
AcDb2dVertex
 10
21.39515950822463
 20
11.73434747339331
 30
0.0
  0
VERTEX
  5
223
330
195
100
AcDbEntity
  8
CALQUE_1
 62
     7
100
AcDbVertex
100
AcDb2dVertex
 10
21.09516039546133
 20
11.73434747339331
 30
0.0
  0
VERTEX
  5
224
330
195
100
AcDbEntity
  8
CALQUE_1
 62
     7
100
AcDbVertex
100
AcDb2dVertex
 10
21.09516039546133
 20
12.33434569891991
 30
0.0
  0
VERTEX
  5
225
330
195
100
AcDbEntity
  8
CALQUE_1
 62
     7
100
AcDbVertex
100
AcDb2dVertex
 10
21.39515950822463
 20
12.33434569891991
 30
0.0
  0
VERTEX
  5
226
330
195
100
AcDbEntity
  8
CALQUE_1
 62
     7
100
AcDbVertex
100
AcDb2dVertex
 10
21.39515950822463
 20
12.93434392444652
 30
0.0
  0
VERTEX
  5
227
330
195
100
AcDbEntity
  8
CALQUE_1
 62
     7
100
AcDbVertex
100
AcDb2dVertex
 10
21.09516039546133
 20
12.93434392444652
 30
0.0
  0
VERTEX
  5
228
330
195
100
AcDbEntity
  8
CALQUE_1
 62
     7
100
AcDbVertex
100
AcDb2dVertex
 10
21.09516039546133
 20
13.88429518022688
 30
0.0
  0
VERTEX
  5
229
330
195
100
AcDbEntity
  8
CALQUE_1
 62
     7
100
AcDbVertex
100
AcDb2dVertex
 10
21.39515950822463
 20
13.88429518022688
 30
0.0
  0
VERTEX
  5
22A
330
195
100
AcDbEntity
  8
CALQUE_1
 62
     7
100
AcDbVertex
100
AcDb2dVertex
 10
21.39515950822463
 20
14.83433256345118
 30
0.0
  0
SEQEND
  5
22B
330
195
100
AcDbEntity
  8
CALQUE_1
  0
ENDBLK
  5
194
330
191
100
AcDbEntity
  8
0
100
AcDbBlockEnd
  0
BLOCK
  5
22E
330
22C
100
AcDbEntity
  8
0
100
AcDbBlockBegin
  2
BLOCK_3
 70
     0
 71
     0
 10
0.0
 20
0.0
 30
0.0
  3
BLOCK_3
  1

  0
POLYLINE
  5
230
330
22C
100
AcDbEntity
  8
CALQUE_1
 62
     7
100
AcDb2dPolyline
 66
     1
 10
0.0
 20
0.0
 30
0.0
  0
VERTEX
  5
231
330
230
100
AcDbEntity
  8
CALQUE_1
 62
     7
100
AcDbVertex
100
AcDb2dVertex
 10
-4.604855467201912
 20
14.53431622519909
 30
0.0
  0
VERTEX
  5
232
330
230
100
AcDbEntity
  8
CALQUE_1
 62
     7
100
AcDbVertex
100
AcDb2dVertex
 10
-3.904846053761676
 20
14.53431622519909
 30
0.0
  0
VERTEX
  5
233
330
230
100
AcDbEntity
  8
CALQUE_1
 62
     7
100
AcDbVertex
100
AcDb2dVertex
 10
-3.904846053761676
 20
14.83433256345118
 30
0.0
  0
VERTEX
  5
234
330
230
100
AcDbEntity
  8
CALQUE_1
 62
     7
100
AcDbVertex
100
AcDb2dVertex
 10
-2.904871978535716
 20
14.83433256345118
 30
0.0
  0
VERTEX
  5
235
330
230
100
AcDbEntity
  8
CALQUE_1
 62
     7
100
AcDbVertex
100
AcDb2dVertex
 10
-2.904871978535716
 20
14.53431622519909
 30
0.0
  0
VERTEX
  5
236
330
230
100
AcDbEntity
  8
CALQUE_1
 62
     7
100
AcDbVertex
100
AcDb2dVertex
 10
-2.304873753009108
 20
14.53431622519909
 30
0.0
  0
VERTEX
  5
237
330
230
100
AcDbEntity
  8
CALQUE_1
 62
     7
100
AcDbVertex
100
AcDb2dVertex
 10
-2.304873753009108
 20
14.83433256345118
 30
0.0
  0
VERTEX
  5
238
330
230
100
AcDbEntity
  8
CALQUE_1
 62
     7
100
AcDbVertex
100
AcDb2dVertex
 10
-1.704875527482501
 20
14.83433256345118
 30
0.0
  0
VERTEX
  5
239
330
230
100
AcDbEntity
  8
CALQUE_1
 62
     7
100
AcDbVertex
100
AcDb2dVertex
 10
-1.704875527482501
 20
14.53431622519909
 30
0.0
  0
VERTEX
  5
23A
330
230
100
AcDbEntity
  8
CALQUE_1
 62
     7
100
AcDbVertex
100
AcDb2dVertex
 10
-1.104842850978313
 20
14.53431622519909
 30
0.0
  0
VERTEX
  5
23B
330
230
100
AcDbEntity
  8
CALQUE_1
 62
     7
100
AcDbVertex
100
AcDb2dVertex
 10
-1.104842850978313
 20
14.83433256345118
 30
0.0
  0
VERTEX
  5
23C
330
230
100
AcDbEntity
  8
CALQUE_1
 62
     7
100
AcDbVertex
100
AcDb2dVertex
 10
-0.5048446254517058
 20
14.83433256345118
 30
0.0
  0
VERTEX
  5
23D
330
230
100
AcDbEntity
  8
CALQUE_1
 62
     7
100
AcDbVertex
100
AcDb2dVertex
 10
-0.5048446254517058
 20
14.53431622519909
 30
0.0
  0
VERTEX
  5
23E
330
230
100
AcDbEntity
  8
CALQUE_1
 62
     7
100
AcDbVertex
100
AcDb2dVertex
 10
0.0951536000749018
 20
14.53431622519909
 30
0.0
  0
VERTEX
  5
23F
330
230
100
AcDbEntity
  8
CALQUE_1
 62
     7
100
AcDbVertex
100
AcDb2dVertex
 10
0.0951536000749018
 20
14.83433256345118
 30
0.0
  0
VERTEX
  5
240
330
230
100
AcDbEntity
  8
CALQUE_1
 62
     7
100
AcDbVertex
100
AcDb2dVertex
 10
0.6951518256015095
 20
14.83433256345118
 30
0.0
  0
VERTEX
  5
241
330
230
100
AcDbEntity
  8
CALQUE_1
 62
     7
100
AcDbVertex
100
AcDb2dVertex
 10
0.6951518256015095
 20
14.53431622519909
 30
0.0
  0
VERTEX
  5
242
330
230
100
AcDbEntity
  8
CALQUE_1
 62
     7
100
AcDbVertex
100
AcDb2dVertex
 10
1.295150051128117
 20
14.53431622519909
 30
0.0
  0
VERTEX
  5
243
330
230
100
AcDbEntity
  8
CALQUE_1
 62
     7
100
AcDbVertex
100
AcDb2dVertex
 10
1.295150051128117
 20
14.83433256345118
 30
0.0
  0
VERTEX
  5
244
330
230
100
AcDbEntity
  8
CALQUE_1
 62
     7
100
AcDbVertex
100
AcDb2dVertex
 10
1.895148276654725
 20
14.83433256345118
 30
0.0
  0
VERTEX
  5
245
330
230
100
AcDbEntity
  8
CALQUE_1
 62
     7
100
AcDbVertex
100
AcDb2dVertex
 10
1.895148276654725
 20
14.53431622519909
 30
0.0
  0
VERTEX
  5
246
330
230
100
AcDbEntity
  8
CALQUE_1
 62
     7
100
AcDbVertex
100
AcDb2dVertex
 10
2.495146502181333
 20
14.53431622519909
 30
0.0
  0
VERTEX
  5
247
330
230
100
AcDbEntity
  8
CALQUE_1
 62
     7
100
AcDbVertex
100
AcDb2dVertex
 10
2.495146502181333
 20
14.83433256345118
 30
0.0
  0
VERTEX
  5
248
330
230
100
AcDbEntity
  8
CALQUE_1
 62
     7
100
AcDbVertex
100
AcDb2dVertex
 10
3.09514472770794
 20
14.83433256345118
 30
0.0
  0
VERTEX
  5
249
330
230
100
AcDbEntity
  8
CALQUE_1
 62
     7
100
AcDbVertex
100
AcDb2dVertex
 10
3.09514472770794
 20
14.53431622519909
 30
0.0
  0
VERTEX
  5
24A
330
230
100
AcDbEntity
  8
CALQUE_1
 62
     7
100
AcDbVertex
100
AcDb2dVertex
 10
3.695142953234548
 20
14.53431622519909
 30
0.0
  0
VERTEX
  5
24B
330
230
100
AcDbEntity
  8
CALQUE_1
 62
     7
100
AcDbVertex
100
AcDb2dVertex
 10
3.695142953234548
 20
14.83433256345118
 30
0.0
  0
VERTEX
  5
24C
330
230
100
AcDbEntity
  8
CALQUE_1
 62
     7
100
AcDbVertex
100
AcDb2dVertex
 10
4.295141178761155
 20
14.83433256345118
 30
0.0
  0
VERTEX
  5
24D
330
230
100
AcDbEntity
  8
CALQUE_1
 62
     7
100
AcDbVertex
100
AcDb2dVertex
 10
4.295141178761155
 20
14.53431622519909
 30
0.0
  0
VERTEX
  5
24E
330
230
100
AcDbEntity
  8
CALQUE_1
 62
     7
100
AcDbVertex
100
AcDb2dVertex
 10
4.895139404287763
 20
14.53431622519909
 30
0.0
  0
VERTEX
  5
24F
330
230
100
AcDbEntity
  8
CALQUE_1
 62
     7
100
AcDbVertex
100
AcDb2dVertex
 10
4.895139404287763
 20
14.83433256345118
 30
0.0
  0
VERTEX
  5
250
330
230
100
AcDbEntity
  8
CALQUE_1
 62
     7
100
AcDbVertex
100
AcDb2dVertex
 10
5.49513762981437
 20
14.83433256345118
 30
0.0
  0
VERTEX
  5
251
330
230
100
AcDbEntity
  8
CALQUE_1
 62
     7
100
AcDbVertex
100
AcDb2dVertex
 10
5.49513762981437
 20
14.53431622519909
 30
0.0
  0
VERTEX
  5
252
330
230
100
AcDbEntity
  8
CALQUE_1
 62
     7
100
AcDbVertex
100
AcDb2dVertex
 10
6.095135855340978
 20
14.53431622519909
 30
0.0
  0
VERTEX
  5
253
330
230
100
AcDbEntity
  8
CALQUE_1
 62
     7
100
AcDbVertex
100
AcDb2dVertex
 10
6.095135855340978
 20
14.83433256345118
 30
0.0
  0
VERTEX
  5
254
330
230
100
AcDbEntity
  8
CALQUE_1
 62
     7
100
AcDbVertex
100
AcDb2dVertex
 10
7.095144381544517
 20
14.83433256345118
 30
0.0
  0
VERTEX
  5
255
330
230
100
AcDbEntity
  8
CALQUE_1
 62
     7
100
AcDbVertex
100
AcDb2dVertex
 10
7.095144381544517
 20
14.53431622519909
 30
0.0
  0
VERTEX
  5
256
330
230
100
AcDbEntity
  8
CALQUE_1
 62
     7
100
AcDbVertex
100
AcDb2dVertex
 10
7.795153794984753
 20
14.53431622519909
 30
0.0
  0
VERTEX
  5
257
330
230
100
AcDbEntity
  8
CALQUE_1
 62
     7
100
AcDbVertex
100
AcDb2dVertex
 10
7.795153794984753
 20
14.08431755605413
 30
0.0
  0
VERTEX
  5
258
330
230
100
AcDbEntity
  8
CALQUE_1
 62
     7
100
AcDbVertex
100
AcDb2dVertex
 10
8.095152907748057
 20
14.08431755605413
 30
0.0
  0
VERTEX
  5
259
330
230
100
AcDbEntity
  8
CALQUE_1
 62
     7
100
AcDbVertex
100
AcDb2dVertex
 10
8.095152907748057
 20
13.33431977414587
 30
0.0
  0
VERTEX
  5
25A
330
230
100
AcDbEntity
  8
CALQUE_1
 62
     7
100
AcDbVertex
100
AcDb2dVertex
 10
7.795153794984753
 20
13.33431977414587
 30
0.0
  0
VERTEX
  5
25B
330
230
100
AcDbEntity
  8
CALQUE_1
 62
     7
100
AcDbVertex
100
AcDb2dVertex
 10
7.795153794984753
 20
12.73432154861927
 30
0.0
  0
VERTEX
  5
25C
330
230
100
AcDbEntity
  8
CALQUE_1
 62
     7
100
AcDbVertex
100
AcDb2dVertex
 10
8.095152907748057
 20
12.73432154861927
 30
0.0
  0
VERTEX
  5
25D
330
230
100
AcDbEntity
  8
CALQUE_1
 62
     7
100
AcDbVertex
100
AcDb2dVertex
 10
8.095152907748057
 20
12.13432332309266
 30
0.0
  0
VERTEX
  5
25E
330
230
100
AcDbEntity
  8
CALQUE_1
 62
     7
100
AcDbVertex
100
AcDb2dVertex
 10
7.795153794984753
 20
12.13432332309266
 30
0.0
  0
VERTEX
  5
25F
330
230
100
AcDbEntity
  8
CALQUE_1
 62
     7
100
AcDbVertex
100
AcDb2dVertex
 10
7.795153794984753
 20
11.53432509756605
 30
0.0
  0
VERTEX
  5
260
330
230
100
AcDbEntity
  8
CALQUE_1
 62
     7
100
AcDbVertex
100
AcDb2dVertex
 10
8.095152907748057
 20
11.53432509756605
 30
0.0
  0
VERTEX
  5
261
330
230
100
AcDbEntity
  8
CALQUE_1
 62
     7
100
AcDbVertex
100
AcDb2dVertex
 10
8.095152907748057
 20
10.78432731565779
 30
0.0
  0
VERTEX
  5
262
330
230
100
AcDbEntity
  8
CALQUE_1
 62
     7
100
AcDbVertex
100
AcDb2dVertex
 10
7.795153794984753
 20
10.78432731565779
 30
0.0
  0
VERTEX
  5
263
330
230
100
AcDbEntity
  8
CALQUE_1
 62
     7
100
AcDbVertex
100
AcDb2dVertex
 10
7.795153794984753
 20
10.33432864651284
 30
0.0
  0
VERTEX
  5
264
330
230
100
AcDbEntity
  8
CALQUE_1
 62
     7
100
AcDbVertex
100
AcDb2dVertex
 10
7.095144381544517
 20
10.33432864651284
 30
0.0
  0
VERTEX
  5
265
330
230
100
AcDbEntity
  8
CALQUE_1
 62
     7
100
AcDbVertex
100
AcDb2dVertex
 10
7.095144381544517
 20
10.03432953374953
 30
0.0
  0
VERTEX
  5
266
330
230
100
AcDbEntity
  8
CALQUE_1
 62
     7
100
AcDbVertex
100
AcDb2dVertex
 10
6.095135855340978
 20
10.03432953374953
 30
0.0
  0
VERTEX
  5
267
330
230
100
AcDbEntity
  8
CALQUE_1
 62
     7
100
AcDbVertex
100
AcDb2dVertex
 10
6.095135855340978
 20
10.33432864651284
 30
0.0
  0
VERTEX
  5
268
330
230
100
AcDbEntity
  8
CALQUE_1
 62
     7
100
AcDbVertex
100
AcDb2dVertex
 10
5.49513762981437
 20
10.33432864651284
 30
0.0
  0
VERTEX
  5
269
330
230
100
AcDbEntity
  8
CALQUE_1
 62
     7
100
AcDbVertex
100
AcDb2dVertex
 10
5.49513762981437
 20
10.03432953374953
 30
0.0
  0
VERTEX
  5
26A
330
230
100
AcDbEntity
  8
CALQUE_1
 62
     7
100
AcDbVertex
100
AcDb2dVertex
 10
4.895139404287763
 20
10.03432953374953
 30
0.0
  0
VERTEX
  5
26B
330
230
100
AcDbEntity
  8
CALQUE_1
 62
     7
100
AcDbVertex
100
AcDb2dVertex
 10
4.895139404287763
 20
10.33432864651284
 30
0.0
  0
VERTEX
  5
26C
330
230
100
AcDbEntity
  8
CALQUE_1
 62
     7
100
AcDbVertex
100
AcDb2dVertex
 10
4.295141178761155
 20
10.33432864651284
 30
0.0
  0
VERTEX
  5
26D
330
230
100
AcDbEntity
  8
CALQUE_1
 62
     7
100
AcDbVertex
100
AcDb2dVertex
 10
4.295141178761155
 20
10.03432953374953
 30
0.0
  0
VERTEX
  5
26E
330
230
100
AcDbEntity
  8
CALQUE_1
 62
     7
100
AcDbVertex
100
AcDb2dVertex
 10
3.695142953234548
 20
10.03432953374953
 30
0.0
  0
VERTEX
  5
26F
330
230
100
AcDbEntity
  8
CALQUE_1
 62
     7
100
AcDbVertex
100
AcDb2dVertex
 10
3.695142953234548
 20
10.33432864651284
 30
0.0
  0
VERTEX
  5
270
330
230
100
AcDbEntity
  8
CALQUE_1
 62
     7
100
AcDbVertex
100
AcDb2dVertex
 10
3.09514472770794
 20
10.33432864651284
 30
0.0
  0
VERTEX
  5
271
330
230
100
AcDbEntity
  8
CALQUE_1
 62
     7
100
AcDbVertex
100
AcDb2dVertex
 10
3.09514472770794
 20
10.03432953374953
 30
0.0
  0
VERTEX
  5
272
330
230
100
AcDbEntity
  8
CALQUE_1
 62
     7
100
AcDbVertex
100
AcDb2dVertex
 10
2.495146502181333
 20
10.03432953374953
 30
0.0
  0
VERTEX
  5
273
330
230
100
AcDbEntity
  8
CALQUE_1
 62
     7
100
AcDbVertex
100
AcDb2dVertex
 10
2.495146502181333
 20
10.33432864651284
 30
0.0
  0
VERTEX
  5
274
330
230
100
AcDbEntity
  8
CALQUE_1
 62
     7
100
AcDbVertex
100
AcDb2dVertex
 10
1.895148276654725
 20
10.33432864651284
 30
0.0
  0
VERTEX
  5
275
330
230
100
AcDbEntity
  8
CALQUE_1
 62
     7
100
AcDbVertex
100
AcDb2dVertex
 10
1.895148276654725
 20
10.03432953374953
 30
0.0
  0
VERTEX
  5
276
330
230
100
AcDbEntity
  8
CALQUE_1
 62
     7
100
AcDbVertex
100
AcDb2dVertex
 10
1.295150051128117
 20
10.03432953374953
 30
0.0
  0
VERTEX
  5
277
330
230
100
AcDbEntity
  8
CALQUE_1
 62
     7
100
AcDbVertex
100
AcDb2dVertex
 10
1.295150051128117
 20
10.33432864651284
 30
0.0
  0
VERTEX
  5
278
330
230
100
AcDbEntity
  8
CALQUE_1
 62
     7
100
AcDbVertex
100
AcDb2dVertex
 10
0.6951518256015095
 20
10.33432864651284
 30
0.0
  0
VERTEX
  5
279
330
230
100
AcDbEntity
  8
CALQUE_1
 62
     7
100
AcDbVertex
100
AcDb2dVertex
 10
0.6951518256015095
 20
10.03432953374953
 30
0.0
  0
VERTEX
  5
27A
330
230
100
AcDbEntity
  8
CALQUE_1
 62
     7
100
AcDbVertex
100
AcDb2dVertex
 10
0.0951536000749018
 20
10.03432953374953
 30
0.0
  0
VERTEX
  5
27B
330
230
100
AcDbEntity
  8
CALQUE_1
 62
     7
100
AcDbVertex
100
AcDb2dVertex
 10
0.0951536000749018
 20
10.33432864651284
 30
0.0
  0
VERTEX
  5
27C
330
230
100
AcDbEntity
  8
CALQUE_1
 62
     7
100
AcDbVertex
100
AcDb2dVertex
 10
-0.5048446254517058
 20
10.33432864651284
 30
0.0
  0
VERTEX
  5
27D
330
230
100
AcDbEntity
  8
CALQUE_1
 62
     7
100
AcDbVertex
100
AcDb2dVertex
 10
-0.5048446254517058
 20
10.03432953374953
 30
0.0
  0
VERTEX
  5
27E
330
230
100
AcDbEntity
  8
CALQUE_1
 62
     7
100
AcDbVertex
100
AcDb2dVertex
 10
-1.104842850978313
 20
10.03432953374953
 30
0.0
  0
VERTEX
  5
27F
330
230
100
AcDbEntity
  8
CALQUE_1
 62
     7
100
AcDbVertex
100
AcDb2dVertex
 10
-1.104842850978313
 20
10.33432864651284
 30
0.0
  0
VERTEX
  5
280
330
230
100
AcDbEntity
  8
CALQUE_1
 62
     7
100
AcDbVertex
100
AcDb2dVertex
 10
-1.704875527482501
 20
10.33432864651284
 30
0.0
  0
VERTEX
  5
281
330
230
100
AcDbEntity
  8
CALQUE_1
 62
     7
100
AcDbVertex
100
AcDb2dVertex
 10
-1.704875527482501
 20
10.03432953374953
 30
0.0
  0
VERTEX
  5
282
330
230
100
AcDbEntity
  8
CALQUE_1
 62
     7
100
AcDbVertex
100
AcDb2dVertex
 10
-2.304873753009108
 20
10.03432953374953
 30
0.0
  0
VERTEX
  5
283
330
230
100
AcDbEntity
  8
CALQUE_1
 62
     7
100
AcDbVertex
100
AcDb2dVertex
 10
-2.304873753009108
 20
10.33432864651284
 30
0.0
  0
VERTEX
  5
284
330
230
100
AcDbEntity
  8
CALQUE_1
 62
     7
100
AcDbVertex
100
AcDb2dVertex
 10
-2.904871978535716
 20
10.33432864651284
 30
0.0
  0
VERTEX
  5
285
330
230
100
AcDbEntity
  8
CALQUE_1
 62
     7
100
AcDbVertex
100
AcDb2dVertex
 10
-2.904871978535716
 20
10.03432953374953
 30
0.0
  0
VERTEX
  5
286
330
230
100
AcDbEntity
  8
CALQUE_1
 62
     7
100
AcDbVertex
100
AcDb2dVertex
 10
-3.904846053761676
 20
10.03432953374953
 30
0.0
  0
VERTEX
  5
287
330
230
100
AcDbEntity
  8
CALQUE_1
 62
     7
100
AcDbVertex
100
AcDb2dVertex
 10
-3.904846053761676
 20
10.33432864651284
 30
0.0
  0
VERTEX
  5
288
330
230
100
AcDbEntity
  8
CALQUE_1
 62
     7
100
AcDbVertex
100
AcDb2dVertex
 10
-4.604855467201912
 20
10.33432864651284
 30
0.0
  0
VERTEX
  5
289
330
230
100
AcDbEntity
  8
CALQUE_1
 62
     7
100
AcDbVertex
100
AcDb2dVertex
 10
-4.604855467201912
 20
10.78432731565779
 30
0.0
  0
VERTEX
  5
28A
330
230
100
AcDbEntity
  8
CALQUE_1
 62
     7
100
AcDbVertex
100
AcDb2dVertex
 10
-4.904854579965215
 20
10.78432731565779
 30
0.0
  0
VERTEX
  5
28B
330
230
100
AcDbEntity
  8
CALQUE_1
 62
     7
100
AcDbVertex
100
AcDb2dVertex
 10
-4.904854579965215
 20
11.53432509756605
 30
0.0
  0
VERTEX
  5
28C
330
230
100
AcDbEntity
  8
CALQUE_1
 62
     7
100
AcDbVertex
100
AcDb2dVertex
 10
-4.604855467201912
 20
11.53432509756605
 30
0.0
  0
VERTEX
  5
28D
330
230
100
AcDbEntity
  8
CALQUE_1
 62
     7
100
AcDbVertex
100
AcDb2dVertex
 10
-4.604855467201912
 20
12.13432332309266
 30
0.0
  0
VERTEX
  5
28E
330
230
100
AcDbEntity
  8
CALQUE_1
 62
     7
100
AcDbVertex
100
AcDb2dVertex
 10
-4.904854579965215
 20
12.13432332309266
 30
0.0
  0
VERTEX
  5
28F
330
230
100
AcDbEntity
  8
CALQUE_1
 62
     7
100
AcDbVertex
100
AcDb2dVertex
 10
-4.904854579965215
 20
12.73432154861927
 30
0.0
  0
VERTEX
  5
290
330
230
100
AcDbEntity
  8
CALQUE_1
 62
     7
100
AcDbVertex
100
AcDb2dVertex
 10
-4.604855467201912
 20
12.73432154861927
 30
0.0
  0
VERTEX
  5
291
330
230
100
AcDbEntity
  8
CALQUE_1
 62
     7
100
AcDbVertex
100
AcDb2dVertex
 10
-4.604855467201912
 20
13.33431977414587
 30
0.0
  0
VERTEX
  5
292
330
230
100
AcDbEntity
  8
CALQUE_1
 62
     7
100
AcDbVertex
100
AcDb2dVertex
 10
-4.904854579965215
 20
13.33431977414587
 30
0.0
  0
VERTEX
  5
293
330
230
100
AcDbEntity
  8
CALQUE_1
 62
     7
100
AcDbVertex
100
AcDb2dVertex
 10
-4.904854579965215
 20
14.08431755605413
 30
0.0
  0
VERTEX
  5
294
330
230
100
AcDbEntity
  8
CALQUE_1
 62
     7
100
AcDbVertex
100
AcDb2dVertex
 10
-4.604855467201912
 20
14.08431755605413
 30
0.0
  0
VERTEX
  5
295
330
230
100
AcDbEntity
  8
CALQUE_1
 62
     7
100
AcDbVertex
100
AcDb2dVertex
 10
-4.604855467201912
 20
14.53431622519909
 30
0.0
  0
SEQEND
  5
296
330
230
100
AcDbEntity
  8
CALQUE_1
  0
ENDBLK
  5
22F
330
22C
100
AcDbEntity
  8
0
100
AcDbBlockEnd
  0
BLOCK
  5
299
330
297
100
AcDbEntity
  8
0
100
AcDbBlockBegin
  2
BLOCK_4
 70
     0
 71
     0
 10
0.0
 20
0.0
 30
0.0
  3
BLOCK_4
  1

  0
POLYLINE
  5
29B
330
297
100
AcDbEntity
  8
CALQUE_1
 62
     7
100
AcDb2dPolyline
 66
     1
 10
0.0
 20
0.0
 30
0.0
  0
VERTEX
  5
29C
330
29B
100
AcDbEntity
  8
CALQUE_1
 62
     7
100
AcDbVertex
100
AcDb2dVertex
 10
20.09515186925779
 20
14.53431622519909
 30
0.0
  0
VERTEX
  5
29D
330
29B
100
AcDbEntity
  8
CALQUE_1
 62
     7
100
AcDbVertex
100
AcDb2dVertex
 10
20.09515186925779
 20
14.83433256345118
 30
0.0
  0
VERTEX
  5
29E
330
29B
100
AcDbEntity
  8
CALQUE_1
 62
     7
100
AcDbVertex
100
AcDb2dVertex
 10
19.09514334305425
 20
14.83433256345118
 30
0.0
  0
VERTEX
  5
29F
330
29B
100
AcDbEntity
  8
CALQUE_1
 62
     7
100
AcDbVertex
100
AcDb2dVertex
 10
19.09514334305425
 20
14.53431622519909
 30
0.0
  0
VERTEX
  5
2A0
330
29B
100
AcDbEntity
  8
CALQUE_1
 62
     7
100
AcDbVertex
100
AcDb2dVertex
 10
18.49514511752764
 20
14.53431622519909
 30
0.0
  0
VERTEX
  5
2A1
330
29B
100
AcDbEntity
  8
CALQUE_1
 62
     7
100
AcDbVertex
100
AcDb2dVertex
 10
18.49514511752764
 20
14.83433256345118
 30
0.0
  0
VERTEX
  5
2A2
330
29B
100
AcDbEntity
  8
CALQUE_1
 62
     7
100
AcDbVertex
100
AcDb2dVertex
 10
17.89514689200103
 20
14.83433256345118
 30
0.0
  0
VERTEX
  5
2A3
330
29B
100
AcDbEntity
  8
CALQUE_1
 62
     7
100
AcDbVertex
100
AcDb2dVertex
 10
17.89514689200103
 20
14.53431622519909
 30
0.0
  0
VERTEX
  5
2A4
330
29B
100
AcDbEntity
  8
CALQUE_1
 62
     7
100
AcDbVertex
100
AcDb2dVertex
 10
17.29514866647443
 20
14.53431622519909
 30
0.0
  0
VERTEX
  5
2A5
330
29B
100
AcDbEntity
  8
CALQUE_1
 62
     7
100
AcDbVertex
100
AcDb2dVertex
 10
17.29514866647443
 20
14.83433256345118
 30
0.0
  0
VERTEX
  5
2A6
330
29B
100
AcDbEntity
  8
CALQUE_1
 62
     7
100
AcDbVertex
100
AcDb2dVertex
 10
16.69515044094782
 20
14.83433256345118
 30
0.0
  0
VERTEX
  5
2A7
330
29B
100
AcDbEntity
  8
CALQUE_1
 62
     7
100
AcDbVertex
100
AcDb2dVertex
 10
16.69515044094782
 20
14.53431622519909
 30
0.0
  0
VERTEX
  5
2A8
330
29B
100
AcDbEntity
  8
CALQUE_1
 62
     7
100
AcDbVertex
100
AcDb2dVertex
 10
16.09515221542121
 20
14.53431622519909
 30
0.0
  0
VERTEX
  5
2A9
330
29B
100
AcDbEntity
  8
CALQUE_1
 62
     7
100
AcDbVertex
100
AcDb2dVertex
 10
16.09515221542121
 20
14.83433256345118
 30
0.0
  0
VERTEX
  5
2AA
330
29B
100
AcDbEntity
  8
CALQUE_1
 62
     7
100
AcDbVertex
100
AcDb2dVertex
 10
15.4951539898946
 20
14.83433256345118
 30
0.0
  0
VERTEX
  5
2AB
330
29B
100
AcDbEntity
  8
CALQUE_1
 62
     7
100
AcDbVertex
100
AcDb2dVertex
 10
15.4951539898946
 20
14.53431622519909
 30
0.0
  0
VERTEX
  5
2AC
330
29B
100
AcDbEntity
  8
CALQUE_1
 62
     7
100
AcDbVertex
100
AcDb2dVertex
 10
14.895155764368
 20
14.53431622519909
 30
0.0
  0
VERTEX
  5
2AD
330
29B
100
AcDbEntity
  8
CALQUE_1
 62
     7
100
AcDbVertex
100
AcDb2dVertex
 10
14.895155764368
 20
14.83433256345118
 30
0.0
  0
VERTEX
  5
2AE
330
29B
100
AcDbEntity
  8
CALQUE_1
 62
     7
100
AcDbVertex
100
AcDb2dVertex
 10
14.29515753884139
 20
14.83433256345118
 30
0.0
  0
VERTEX
  5
2AF
330
29B
100
AcDbEntity
  8
CALQUE_1
 62
     7
100
AcDbVertex
100
AcDb2dVertex
 10
14.29515753884139
 20
14.53431622519909
 30
0.0
  0
VERTEX
  5
2B0
330
29B
100
AcDbEntity
  8
CALQUE_1
 62
     7
100
AcDbVertex
100
AcDb2dVertex
 10
13.6951248623372
 20
14.53431622519909
 30
0.0
  0
VERTEX
  5
2B1
330
29B
100
AcDbEntity
  8
CALQUE_1
 62
     7
100
AcDbVertex
100
AcDb2dVertex
 10
13.6951248623372
 20
14.83433256345118
 30
0.0
  0
VERTEX
  5
2B2
330
29B
100
AcDbEntity
  8
CALQUE_1
 62
     7
100
AcDbVertex
100
AcDb2dVertex
 10
13.09512663681059
 20
14.83433256345118
 30
0.0
  0
VERTEX
  5
2B3
330
29B
100
AcDbEntity
  8
CALQUE_1
 62
     7
100
AcDbVertex
100
AcDb2dVertex
 10
13.09512663681059
 20
14.53431622519909
 30
0.0
  0
VERTEX
  5
2B4
330
29B
100
AcDbEntity
  8
CALQUE_1
 62
     7
100
AcDbVertex
100
AcDb2dVertex
 10
12.49512841128399
 20
14.53431622519909
 30
0.0
  0
VERTEX
  5
2B5
330
29B
100
AcDbEntity
  8
CALQUE_1
 62
     7
100
AcDbVertex
100
AcDb2dVertex
 10
12.49512841128399
 20
14.83433256345118
 30
0.0
  0
VERTEX
  5
2B6
330
29B
100
AcDbEntity
  8
CALQUE_1
 62
     7
100
AcDbVertex
100
AcDb2dVertex
 10
11.89513018575738
 20
14.83433256345118
 30
0.0
  0
VERTEX
  5
2B7
330
29B
100
AcDbEntity
  8
CALQUE_1
 62
     7
100
AcDbVertex
100
AcDb2dVertex
 10
11.89513018575738
 20
14.53431622519909
 30
0.0
  0
VERTEX
  5
2B8
330
29B
100
AcDbEntity
  8
CALQUE_1
 62
     7
100
AcDbVertex
100
AcDb2dVertex
 10
11.29513196023077
 20
14.53431622519909
 30
0.0
  0
VERTEX
  5
2B9
330
29B
100
AcDbEntity
  8
CALQUE_1
 62
     7
100
AcDbVertex
100
AcDb2dVertex
 10
11.29513196023077
 20
14.83433256345118
 30
0.0
  0
VERTEX
  5
2BA
330
29B
100
AcDbEntity
  8
CALQUE_1
 62
     7
100
AcDbVertex
100
AcDb2dVertex
 10
10.69513373470416
 20
14.83433256345118
 30
0.0
  0
VERTEX
  5
2BB
330
29B
100
AcDbEntity
  8
CALQUE_1
 62
     7
100
AcDbVertex
100
AcDb2dVertex
 10
10.69513373470416
 20
14.53431622519909
 30
0.0
  0
VERTEX
  5
2BC
330
29B
100
AcDbEntity
  8
CALQUE_1
 62
     7
100
AcDbVertex
100
AcDb2dVertex
 10
10.09513550917756
 20
14.53431622519909
 30
0.0
  0
VERTEX
  5
2BD
330
29B
100
AcDbEntity
  8
CALQUE_1
 62
     7
100
AcDbVertex
100
AcDb2dVertex
 10
10.09513550917756
 20
14.83433256345118
 30
0.0
  0
VERTEX
  5
2BE
330
29B
100
AcDbEntity
  8
CALQUE_1
 62
     7
100
AcDbVertex
100
AcDb2dVertex
 10
9.095126982974016
 20
14.83433256345118
 30
0.0
  0
VERTEX
  5
2BF
330
29B
100
AcDbEntity
  8
CALQUE_1
 62
     7
100
AcDbVertex
100
AcDb2dVertex
 10
9.095126982974016
 20
14.53431622519909
 30
0.0
  0
VERTEX
  5
2C0
330
29B
100
AcDbEntity
  8
CALQUE_1
 62
     7
100
AcDbVertex
100
AcDb2dVertex
 10
8.395152020511361
 20
14.53431622519909
 30
0.0
  0
VERTEX
  5
2C1
330
29B
100
AcDbEntity
  8
CALQUE_1
 62
     7
100
AcDbVertex
100
AcDb2dVertex
 10
8.395152020511361
 20
14.08431755605413
 30
0.0
  0
VERTEX
  5
2C2
330
29B
100
AcDbEntity
  8
CALQUE_1
 62
     7
100
AcDbVertex
100
AcDb2dVertex
 10
8.095152907748057
 20
14.08431755605413
 30
0.0
  0
VERTEX
  5
2C3
330
29B
100
AcDbEntity
  8
CALQUE_1
 62
     7
100
AcDbVertex
100
AcDb2dVertex
 10
8.095152907748057
 20
13.33431977414587
 30
0.0
  0
VERTEX
  5
2C4
330
29B
100
AcDbEntity
  8
CALQUE_1
 62
     7
100
AcDbVertex
100
AcDb2dVertex
 10
8.395152020511361
 20
13.33431977414587
 30
0.0
  0
VERTEX
  5
2C5
330
29B
100
AcDbEntity
  8
CALQUE_1
 62
     7
100
AcDbVertex
100
AcDb2dVertex
 10
8.395152020511361
 20
12.73432154861927
 30
0.0
  0
VERTEX
  5
2C6
330
29B
100
AcDbEntity
  8
CALQUE_1
 62
     7
100
AcDbVertex
100
AcDb2dVertex
 10
8.095152907748057
 20
12.73432154861927
 30
0.0
  0
VERTEX
  5
2C7
330
29B
100
AcDbEntity
  8
CALQUE_1
 62
     7
100
AcDbVertex
100
AcDb2dVertex
 10
8.095152907748057
 20
12.13432332309266
 30
0.0
  0
VERTEX
  5
2C8
330
29B
100
AcDbEntity
  8
CALQUE_1
 62
     7
100
AcDbVertex
100
AcDb2dVertex
 10
8.395152020511361
 20
12.13432332309266
 30
0.0
  0
VERTEX
  5
2C9
330
29B
100
AcDbEntity
  8
CALQUE_1
 62
     7
100
AcDbVertex
100
AcDb2dVertex
 10
8.395152020511361
 20
11.53432509756605
 30
0.0
  0
VERTEX
  5
2CA
330
29B
100
AcDbEntity
  8
CALQUE_1
 62
     7
100
AcDbVertex
100
AcDb2dVertex
 10
8.095152907748057
 20
11.53432509756605
 30
0.0
  0
VERTEX
  5
2CB
330
29B
100
AcDbEntity
  8
CALQUE_1
 62
     7
100
AcDbVertex
100
AcDb2dVertex
 10
8.095152907748057
 20
10.78432731565779
 30
0.0
  0
VERTEX
  5
2CC
330
29B
100
AcDbEntity
  8
CALQUE_1
 62
     7
100
AcDbVertex
100
AcDb2dVertex
 10
8.395152020511361
 20
10.78432731565779
 30
0.0
  0
VERTEX
  5
2CD
330
29B
100
AcDbEntity
  8
CALQUE_1
 62
     7
100
AcDbVertex
100
AcDb2dVertex
 10
8.395152020511361
 20
10.33432864651284
 30
0.0
  0
VERTEX
  5
2CE
330
29B
100
AcDbEntity
  8
CALQUE_1
 62
     7
100
AcDbVertex
100
AcDb2dVertex
 10
9.095126982974016
 20
10.33432864651284
 30
0.0
  0
VERTEX
  5
2CF
330
29B
100
AcDbEntity
  8
CALQUE_1
 62
     7
100
AcDbVertex
100
AcDb2dVertex
 10
9.095126982974016
 20
10.03432953374953
 30
0.0
  0
VERTEX
  5
2D0
330
29B
100
AcDbEntity
  8
CALQUE_1
 62
     7
100
AcDbVertex
100
AcDb2dVertex
 10
10.09513550917756
 20
10.03432953374953
 30
0.0
  0
VERTEX
  5
2D1
330
29B
100
AcDbEntity
  8
CALQUE_1
 62
     7
100
AcDbVertex
100
AcDb2dVertex
 10
10.09513550917756
 20
10.33432864651284
 30
0.0
  0
VERTEX
  5
2D2
330
29B
100
AcDbEntity
  8
CALQUE_1
 62
     7
100
AcDbVertex
100
AcDb2dVertex
 10
10.69513373470416
 20
10.33432864651284
 30
0.0
  0
VERTEX
  5
2D3
330
29B
100
AcDbEntity
  8
CALQUE_1
 62
     7
100
AcDbVertex
100
AcDb2dVertex
 10
10.69513373470416
 20
10.03432953374953
 30
0.0
  0
VERTEX
  5
2D4
330
29B
100
AcDbEntity
  8
CALQUE_1
 62
     7
100
AcDbVertex
100
AcDb2dVertex
 10
11.29513196023077
 20
10.03432953374953
 30
0.0
  0
VERTEX
  5
2D5
330
29B
100
AcDbEntity
  8
CALQUE_1
 62
     7
100
AcDbVertex
100
AcDb2dVertex
 10
11.29513196023077
 20
10.33432864651284
 30
0.0
  0
VERTEX
  5
2D6
330
29B
100
AcDbEntity
  8
CALQUE_1
 62
     7
100
AcDbVertex
100
AcDb2dVertex
 10
11.89513018575738
 20
10.33432864651284
 30
0.0
  0
VERTEX
  5
2D7
330
29B
100
AcDbEntity
  8
CALQUE_1
 62
     7
100
AcDbVertex
100
AcDb2dVertex
 10
11.89513018575738
 20
10.03432953374953
 30
0.0
  0
VERTEX
  5
2D8
330
29B
100
AcDbEntity
  8
CALQUE_1
 62
     7
100
AcDbVertex
100
AcDb2dVertex
 10
12.49512841128399
 20
10.03432953374953
 30
0.0
  0
VERTEX
  5
2D9
330
29B
100
AcDbEntity
  8
CALQUE_1
 62
     7
100
AcDbVertex
100
AcDb2dVertex
 10
12.49512841128399
 20
10.33432864651284
 30
0.0
  0
VERTEX
  5
2DA
330
29B
100
AcDbEntity
  8
CALQUE_1
 62
     7
100
AcDbVertex
100
AcDb2dVertex
 10
13.09512663681059
 20
10.33432864651284
 30
0.0
  0
VERTEX
  5
2DB
330
29B
100
AcDbEntity
  8
CALQUE_1
 62
     7
100
AcDbVertex
100
AcDb2dVertex
 10
13.09512663681059
 20
10.03432953374953
 30
0.0
  0
VERTEX
  5
2DC
330
29B
100
AcDbEntity
  8
CALQUE_1
 62
     7
100
AcDbVertex
100
AcDb2dVertex
 10
13.6951248623372
 20
10.03432953374953
 30
0.0
  0
VERTEX
  5
2DD
330
29B
100
AcDbEntity
  8
CALQUE_1
 62
     7
100
AcDbVertex
100
AcDb2dVertex
 10
13.6951248623372
 20
10.33432864651284
 30
0.0
  0
VERTEX
  5
2DE
330
29B
100
AcDbEntity
  8
CALQUE_1
 62
     7
100
AcDbVertex
100
AcDb2dVertex
 10
14.29515753884139
 20
10.33432864651284
 30
0.0
  0
VERTEX
  5
2DF
330
29B
100
AcDbEntity
  8
CALQUE_1
 62
     7
100
AcDbVertex
100
AcDb2dVertex
 10
14.29515753884139
 20
10.03432953374953
 30
0.0
  0
VERTEX
  5
2E0
330
29B
100
AcDbEntity
  8
CALQUE_1
 62
     7
100
AcDbVertex
100
AcDb2dVertex
 10
14.895155764368
 20
10.03432953374953
 30
0.0
  0
VERTEX
  5
2E1
330
29B
100
AcDbEntity
  8
CALQUE_1
 62
     7
100
AcDbVertex
100
AcDb2dVertex
 10
14.895155764368
 20
10.33432864651284
 30
0.0
  0
VERTEX
  5
2E2
330
29B
100
AcDbEntity
  8
CALQUE_1
 62
     7
100
AcDbVertex
100
AcDb2dVertex
 10
15.4951539898946
 20
10.33432864651284
 30
0.0
  0
VERTEX
  5
2E3
330
29B
100
AcDbEntity
  8
CALQUE_1
 62
     7
100
AcDbVertex
100
AcDb2dVertex
 10
15.4951539898946
 20
10.03432953374953
 30
0.0
  0
VERTEX
  5
2E4
330
29B
100
AcDbEntity
  8
CALQUE_1
 62
     7
100
AcDbVertex
100
AcDb2dVertex
 10
16.09515221542121
 20
10.03432953374953
 30
0.0
  0
VERTEX
  5
2E5
330
29B
100
AcDbEntity
  8
CALQUE_1
 62
     7
100
AcDbVertex
100
AcDb2dVertex
 10
16.09515221542121
 20
10.33432864651284
 30
0.0
  0
VERTEX
  5
2E6
330
29B
100
AcDbEntity
  8
CALQUE_1
 62
     7
100
AcDbVertex
100
AcDb2dVertex
 10
16.69515044094782
 20
10.33432864651284
 30
0.0
  0
VERTEX
  5
2E7
330
29B
100
AcDbEntity
  8
CALQUE_1
 62
     7
100
AcDbVertex
100
AcDb2dVertex
 10
16.69515044094782
 20
10.03432953374953
 30
0.0
  0
VERTEX
  5
2E8
330
29B
100
AcDbEntity
  8
CALQUE_1
 62
     7
100
AcDbVertex
100
AcDb2dVertex
 10
17.29514866647443
 20
10.03432953374953
 30
0.0
  0
VERTEX
  5
2E9
330
29B
100
AcDbEntity
  8
CALQUE_1
 62
     7
100
AcDbVertex
100
AcDb2dVertex
 10
17.29514866647443
 20
10.33432864651284
 30
0.0
  0
VERTEX
  5
2EA
330
29B
100
AcDbEntity
  8
CALQUE_1
 62
     7
100
AcDbVertex
100
AcDb2dVertex
 10
17.89514689200103
 20
10.33432864651284
 30
0.0
  0
VERTEX
  5
2EB
330
29B
100
AcDbEntity
  8
CALQUE_1
 62
     7
100
AcDbVertex
100
AcDb2dVertex
 10
17.89514689200103
 20
10.03432953374953
 30
0.0
  0
VERTEX
  5
2EC
330
29B
100
AcDbEntity
  8
CALQUE_1
 62
     7
100
AcDbVertex
100
AcDb2dVertex
 10
18.49514511752764
 20
10.03432953374953
 30
0.0
  0
VERTEX
  5
2ED
330
29B
100
AcDbEntity
  8
CALQUE_1
 62
     7
100
AcDbVertex
100
AcDb2dVertex
 10
18.49514511752764
 20
10.33432864651284
 30
0.0
  0
VERTEX
  5
2EE
330
29B
100
AcDbEntity
  8
CALQUE_1
 62
     7
100
AcDbVertex
100
AcDb2dVertex
 10
19.09514334305425
 20
10.33432864651284
 30
0.0
  0
VERTEX
  5
2EF
330
29B
100
AcDbEntity
  8
CALQUE_1
 62
     7
100
AcDbVertex
100
AcDb2dVertex
 10
19.09514334305425
 20
10.03432953374953
 30
0.0
  0
VERTEX
  5
2F0
330
29B
100
AcDbEntity
  8
CALQUE_1
 62
     7
100
AcDbVertex
100
AcDb2dVertex
 10
20.09515186925779
 20
10.03432953374953
 30
0.0
  0
VERTEX
  5
2F1
330
29B
100
AcDbEntity
  8
CALQUE_1
 62
     7
100
AcDbVertex
100
AcDb2dVertex
 10
20.09515186925779
 20
10.33432864651284
 30
0.0
  0
VERTEX
  5
2F2
330
29B
100
AcDbEntity
  8
CALQUE_1
 62
     7
100
AcDbVertex
100
AcDb2dVertex
 10
21.09516039546133
 20
10.33432864651284
 30
0.0
  0
VERTEX
  5
2F3
330
29B
100
AcDbEntity
  8
CALQUE_1
 62
     7
100
AcDbVertex
100
AcDb2dVertex
 10
21.09516039546133
 20
14.53431622519909
 30
0.0
  0
VERTEX
  5
2F4
330
29B
100
AcDbEntity
  8
CALQUE_1
 62
     7
100
AcDbVertex
100
AcDb2dVertex
 10
20.09515186925779
 20
14.53431622519909
 30
0.0
  0
SEQEND
  5
2F5
330
29B
100
AcDbEntity
  8
CALQUE_1
  0
POLYLINE
  5
2F6
330
297
100
AcDbEntity
  8
CALQUE_1
 62
     7
100
AcDb2dPolyline
 66
     1
 10
0.0
 20
0.0
 30
0.0
  0
VERTEX
  5
2F7
330
2F6
100
AcDbEntity
  8
CALQUE_1
 62
     7
100
AcDbVertex
100
AcDb2dVertex
 10
21.09516039546133
 20
14.53462628399731
 30
0.0
  0
VERTEX
  5
2F8
330
2F6
100
AcDbEntity
  8
CALQUE_1
 62
     7
100
AcDbVertex
100
AcDb2dVertex
 10
21.09516039546133
 20
10.3252680394094
 30
0.0
  0
SEQEND
  5
2F9
330
2F6
100
AcDbEntity
  8
CALQUE_1
  0
ENDBLK
  5
29A
330
297
100
AcDbEntity
  8
0
100
AcDbBlockEnd
  0
ENDSEC
  0
SECTION
  2
ENTITIES
  0
POLYLINE
  5
3C
330
1F
100
AcDbEntity
  8
CALQUE_1
 62
     7
100
AcDb2dPolyline
 66
     1
 10
0.0
 20
0.0
 30
0.0
  0
VERTEX
  5
3D
330
3C
100
AcDbEntity
  8
CALQUE_1
 62
     7
100
AcDbVertex
100
AcDb2dVertex
 10
8.095152907748057
 20
33.88432790038735
 30
0.0
  0
VERTEX
  5
3E
330
3C
100
AcDbEntity
  8
CALQUE_1
 62
     7
100
AcDbVertex
100
AcDb2dVertex
 10
8.095152907748057
 20
34.83433083263407
 30
0.0
  0
VERTEX
  5
3F
330
3C
100
AcDbEntity
  8
CALQUE_1
 62
     7
100
AcDbVertex
100
AcDb2dVertex
 10
7.095144381544517
 20
34.83433083263407
 30
0.0
  0
VERTEX
  5
40
330
3C
100
AcDbEntity
  8
CALQUE_1
 62
     7
100
AcDbVertex
100
AcDb2dVertex
 10
7.095144381544517
 20
34.53433171987076
 30
0.0
  0
VERTEX
  5
41
330
3C
100
AcDbEntity
  8
CALQUE_1
 62
     7
100
AcDbVertex
100
AcDb2dVertex
 10
6.095135855340978
 20
34.53433171987076
 30
0.0
  0
VERTEX
  5
42
330
3C
100
AcDbEntity
  8
CALQUE_1
 62
     7
100
AcDbVertex
100
AcDb2dVertex
 10
6.095135855340978
 20
34.83433083263407
 30
0.0
  0
VERTEX
  5
43
330
3C
100
AcDbEntity
  8
CALQUE_1
 62
     7
100
AcDbVertex
100
AcDb2dVertex
 10
5.49513762981437
 20
34.83433083263407
 30
0.0
  0
VERTEX
  5
44
330
3C
100
AcDbEntity
  8
CALQUE_1
 62
     7
100
AcDbVertex
100
AcDb2dVertex
 10
5.49513762981437
 20
34.53433171987076
 30
0.0
  0
VERTEX
  5
45
330
3C
100
AcDbEntity
  8
CALQUE_1
 62
     7
100
AcDbVertex
100
AcDb2dVertex
 10
4.895139404287763
 20
34.53433171987076
 30
0.0
  0
VERTEX
  5
46
330
3C
100
AcDbEntity
  8
CALQUE_1
 62
     7
100
AcDbVertex
100
AcDb2dVertex
 10
4.895139404287763
 20
34.83433083263407
 30
0.0
  0
VERTEX
  5
47
330
3C
100
AcDbEntity
  8
CALQUE_1
 62
     7
100
AcDbVertex
100
AcDb2dVertex
 10
4.295141178761155
 20
34.83433083263407
 30
0.0
  0
VERTEX
  5
48
330
3C
100
AcDbEntity
  8
CALQUE_1
 62
     7
100
AcDbVertex
100
AcDb2dVertex
 10
4.295141178761155
 20
34.53433171987076
 30
0.0
  0
VERTEX
  5
49
330
3C
100
AcDbEntity
  8
CALQUE_1
 62
     7
100
AcDbVertex
100
AcDb2dVertex
 10
3.695142953234548
 20
34.53433171987076
 30
0.0
  0
VERTEX
  5
4A
330
3C
100
AcDbEntity
  8
CALQUE_1
 62
     7
100
AcDbVertex
100
AcDb2dVertex
 10
3.695142953234548
 20
34.83433083263407
 30
0.0
  0
VERTEX
  5
4B
330
3C
100
AcDbEntity
  8
CALQUE_1
 62
     7
100
AcDbVertex
100
AcDb2dVertex
 10
3.09514472770794
 20
34.83433083263407
 30
0.0
  0
VERTEX
  5
4C
330
3C
100
AcDbEntity
  8
CALQUE_1
 62
     7
100
AcDbVertex
100
AcDb2dVertex
 10
3.09514472770794
 20
34.53433171987076
 30
0.0
  0
VERTEX
  5
4D
330
3C
100
AcDbEntity
  8
CALQUE_1
 62
     7
100
AcDbVertex
100
AcDb2dVertex
 10
2.495146502181333
 20
34.53433171987076
 30
0.0
  0
VERTEX
  5
4E
330
3C
100
AcDbEntity
  8
CALQUE_1
 62
     7
100
AcDbVertex
100
AcDb2dVertex
 10
2.495146502181333
 20
34.83433083263407
 30
0.0
  0
VERTEX
  5
4F
330
3C
100
AcDbEntity
  8
CALQUE_1
 62
     7
100
AcDbVertex
100
AcDb2dVertex
 10
1.895148276654725
 20
34.83433083263407
 30
0.0
  0
VERTEX
  5
50
330
3C
100
AcDbEntity
  8
CALQUE_1
 62
     7
100
AcDbVertex
100
AcDb2dVertex
 10
1.895148276654725
 20
34.53433171987076
 30
0.0
  0
VERTEX
  5
51
330
3C
100
AcDbEntity
  8
CALQUE_1
 62
     7
100
AcDbVertex
100
AcDb2dVertex
 10
1.295150051128117
 20
34.53433171987076
 30
0.0
  0
VERTEX
  5
52
330
3C
100
AcDbEntity
  8
CALQUE_1
 62
     7
100
AcDbVertex
100
AcDb2dVertex
 10
1.295150051128117
 20
34.83433083263407
 30
0.0
  0
VERTEX
  5
53
330
3C
100
AcDbEntity
  8
CALQUE_1
 62
     7
100
AcDbVertex
100
AcDb2dVertex
 10
0.6951518256015095
 20
34.83433083263407
 30
0.0
  0
VERTEX
  5
54
330
3C
100
AcDbEntity
  8
CALQUE_1
 62
     7
100
AcDbVertex
100
AcDb2dVertex
 10
0.6951518256015095
 20
34.53433171987076
 30
0.0
  0
VERTEX
  5
55
330
3C
100
AcDbEntity
  8
CALQUE_1
 62
     7
100
AcDbVertex
100
AcDb2dVertex
 10
0.0951536000749018
 20
34.53433171987076
 30
0.0
  0
VERTEX
  5
56
330
3C
100
AcDbEntity
  8
CALQUE_1
 62
     7
100
AcDbVertex
100
AcDb2dVertex
 10
0.0951536000749018
 20
34.83433083263407
 30
0.0
  0
VERTEX
  5
57
330
3C
100
AcDbEntity
  8
CALQUE_1
 62
     7
100
AcDbVertex
100
AcDb2dVertex
 10
-0.5048446254517058
 20
34.83433083263407
 30
0.0
  0
VERTEX
  5
58
330
3C
100
AcDbEntity
  8
CALQUE_1
 62
     7
100
AcDbVertex
100
AcDb2dVertex
 10
-0.5048446254517058
 20
34.53433171987076
 30
0.0
  0
VERTEX
  5
59
330
3C
100
AcDbEntity
  8
CALQUE_1
 62
     7
100
AcDbVertex
100
AcDb2dVertex
 10
-1.104842850978313
 20
34.53433171987076
 30
0.0
  0
VERTEX
  5
5A
330
3C
100
AcDbEntity
  8
CALQUE_1
 62
     7
100
AcDbVertex
100
AcDb2dVertex
 10
-1.104842850978313
 20
34.83433083263407
 30
0.0
  0
VERTEX
  5
5B
330
3C
100
AcDbEntity
  8
CALQUE_1
 62
     7
100
AcDbVertex
100
AcDb2dVertex
 10
-1.704875527482501
 20
34.83433083263407
 30
0.0
  0
VERTEX
  5
5C
330
3C
100
AcDbEntity
  8
CALQUE_1
 62
     7
100
AcDbVertex
100
AcDb2dVertex
 10
-1.704875527482501
 20
34.53433171987076
 30
0.0
  0
VERTEX
  5
5D
330
3C
100
AcDbEntity
  8
CALQUE_1
 62
     7
100
AcDbVertex
100
AcDb2dVertex
 10
-2.304873753009108
 20
34.53433171987076
 30
0.0
  0
VERTEX
  5
5E
330
3C
100
AcDbEntity
  8
CALQUE_1
 62
     7
100
AcDbVertex
100
AcDb2dVertex
 10
-2.304873753009108
 20
34.83433083263407
 30
0.0
  0
VERTEX
  5
5F
330
3C
100
AcDbEntity
  8
CALQUE_1
 62
     7
100
AcDbVertex
100
AcDb2dVertex
 10
-2.904871978535716
 20
34.83433083263407
 30
0.0
  0
VERTEX
  5
60
330
3C
100
AcDbEntity
  8
CALQUE_1
 62
     7
100
AcDbVertex
100
AcDb2dVertex
 10
-2.904871978535716
 20
34.53433171987076
 30
0.0
  0
VERTEX
  5
61
330
3C
100
AcDbEntity
  8
CALQUE_1
 62
     7
100
AcDbVertex
100
AcDb2dVertex
 10
-3.904846053761676
 20
34.53433171987076
 30
0.0
  0
VERTEX
  5
62
330
3C
100
AcDbEntity
  8
CALQUE_1
 62
     7
100
AcDbVertex
100
AcDb2dVertex
 10
-3.904846053761676
 20
34.83433083263407
 30
0.0
  0
VERTEX
  5
63
330
3C
100
AcDbEntity
  8
CALQUE_1
 62
     7
100
AcDbVertex
100
AcDb2dVertex
 10
-4.904854579965215
 20
34.83433083263407
 30
0.0
  0
VERTEX
  5
64
330
3C
100
AcDbEntity
  8
CALQUE_1
 62
     7
100
AcDbVertex
100
AcDb2dVertex
 10
-4.904854579965215
 20
19.13433133005107
 30
0.0
  0
VERTEX
  5
65
330
3C
100
AcDbEntity
  8
CALQUE_1
 62
     7
100
AcDbVertex
100
AcDb2dVertex
 10
-4.604855467201912
 20
19.13433133005107
 30
0.0
  0
VERTEX
  5
66
330
3C
100
AcDbEntity
  8
CALQUE_1
 62
     7
100
AcDbVertex
100
AcDb2dVertex
 10
-4.604855467201912
 20
18.53433310452446
 30
0.0
  0
VERTEX
  5
67
330
3C
100
AcDbEntity
  8
CALQUE_1
 62
     7
100
AcDbVertex
100
AcDb2dVertex
 10
-4.904854579965215
 20
18.53433310452446
 30
0.0
  0
VERTEX
  5
68
330
3C
100
AcDbEntity
  8
CALQUE_1
 62
     7
100
AcDbVertex
100
AcDb2dVertex
 10
-4.904854579965215
 20
17.93433487899785
 30
0.0
  0
VERTEX
  5
69
330
3C
100
AcDbEntity
  8
CALQUE_1
 62
     7
100
AcDbVertex
100
AcDb2dVertex
 10
-4.604855467201912
 20
17.93433487899785
 30
0.0
  0
VERTEX
  5
6A
330
3C
100
AcDbEntity
  8
CALQUE_1
 62
     7
100
AcDbVertex
100
AcDb2dVertex
 10
-4.604855467201912
 20
17.33433665347124
 30
0.0
  0
VERTEX
  5
6B
330
3C
100
AcDbEntity
  8
CALQUE_1
 62
     7
100
AcDbVertex
100
AcDb2dVertex
 10
-4.904854579965215
 20
17.33433665347124
 30
0.0
  0
VERTEX
  5
6C
330
3C
100
AcDbEntity
  8
CALQUE_1
 62
     7
100
AcDbVertex
100
AcDb2dVertex
 10
-4.904854579965215
 20
16.73430397696706
 30
0.0
  0
VERTEX
  5
6D
330
3C
100
AcDbEntity
  8
CALQUE_1
 62
     7
100
AcDbVertex
100
AcDb2dVertex
 10
-4.604855467201912
 20
16.73430397696706
 30
0.0
  0
VERTEX
  5
6E
330
3C
100
AcDbEntity
  8
CALQUE_1
 62
     7
100
AcDbVertex
100
AcDb2dVertex
 10
-4.604855467201912
 20
15.78431827020912
 30
0.0
  0
VERTEX
  5
6F
330
3C
100
AcDbEntity
  8
CALQUE_1
 62
     7
100
AcDbVertex
100
AcDb2dVertex
 10
-4.904854579965215
 20
15.78431827020912
 30
0.0
  0
VERTEX
  5
70
330
3C
100
AcDbEntity
  8
CALQUE_1
 62
     7
100
AcDbVertex
100
AcDb2dVertex
 10
-4.904854579965215
 20
14.83433256345118
 30
0.0
  0
VERTEX
  5
71
330
3C
100
AcDbEntity
  8
CALQUE_1
 62
     7
100
AcDbVertex
100
AcDb2dVertex
 10
-3.904846053761676
 20
14.83433256345118
 30
0.0
  0
VERTEX
  5
72
330
3C
100
AcDbEntity
  8
CALQUE_1
 62
     7
100
AcDbVertex
100
AcDb2dVertex
 10
-3.904846053761676
 20
15.13433167621449
 30
0.0
  0
VERTEX
  5
73
330
3C
100
AcDbEntity
  8
CALQUE_1
 62
     7
100
AcDbVertex
100
AcDb2dVertex
 10
-2.904871978535716
 20
15.13433167621449
 30
0.0
  0
VERTEX
  5
74
330
3C
100
AcDbEntity
  8
CALQUE_1
 62
     7
100
AcDbVertex
100
AcDb2dVertex
 10
-2.904871978535716
 20
14.83433256345118
 30
0.0
  0
VERTEX
  5
75
330
3C
100
AcDbEntity
  8
CALQUE_1
 62
     7
100
AcDbVertex
100
AcDb2dVertex
 10
-2.304873753009108
 20
14.83433256345118
 30
0.0
  0
VERTEX
  5
76
330
3C
100
AcDbEntity
  8
CALQUE_1
 62
     7
100
AcDbVertex
100
AcDb2dVertex
 10
-2.304873753009108
 20
15.13433167621449
 30
0.0
  0
VERTEX
  5
77
330
3C
100
AcDbEntity
  8
CALQUE_1
 62
     7
100
AcDbVertex
100
AcDb2dVertex
 10
-1.704875527482501
 20
15.13433167621449
 30
0.0
  0
VERTEX
  5
78
330
3C
100
AcDbEntity
  8
CALQUE_1
 62
     7
100
AcDbVertex
100
AcDb2dVertex
 10
-1.704875527482501
 20
14.83433256345118
 30
0.0
  0
VERTEX
  5
79
330
3C
100
AcDbEntity
  8
CALQUE_1
 62
     7
100
AcDbVertex
100
AcDb2dVertex
 10
-1.104842850978313
 20
14.83433256345118
 30
0.0
  0
VERTEX
  5
7A
330
3C
100
AcDbEntity
  8
CALQUE_1
 62
     7
100
AcDbVertex
100
AcDb2dVertex
 10
-1.104842850978313
 20
15.13433167621449
 30
0.0
  0
VERTEX
  5
7B
330
3C
100
AcDbEntity
  8
CALQUE_1
 62
     7
100
AcDbVertex
100
AcDb2dVertex
 10
-0.5048446254517058
 20
15.13433167621449
 30
0.0
  0
VERTEX
  5
7C
330
3C
100
AcDbEntity
  8
CALQUE_1
 62
     7
100
AcDbVertex
100
AcDb2dVertex
 10
-0.5048446254517058
 20
14.83433256345118
 30
0.0
  0
VERTEX
  5
7D
330
3C
100
AcDbEntity
  8
CALQUE_1
 62
     7
100
AcDbVertex
100
AcDb2dVertex
 10
0.0951536000749018
 20
14.83433256345118
 30
0.0
  0
VERTEX
  5
7E
330
3C
100
AcDbEntity
  8
CALQUE_1
 62
     7
100
AcDbVertex
100
AcDb2dVertex
 10
0.0951536000749018
 20
15.13433167621449
 30
0.0
  0
VERTEX
  5
7F
330
3C
100
AcDbEntity
  8
CALQUE_1
 62
     7
100
AcDbVertex
100
AcDb2dVertex
 10
0.6951518256015095
 20
15.13433167621449
 30
0.0
  0
VERTEX
  5
80
330
3C
100
AcDbEntity
  8
CALQUE_1
 62
     7
100
AcDbVertex
100
AcDb2dVertex
 10
0.6951518256015095
 20
14.83433256345118
 30
0.0
  0
VERTEX
  5
81
330
3C
100
AcDbEntity
  8
CALQUE_1
 62
     7
100
AcDbVertex
100
AcDb2dVertex
 10
1.295150051128117
 20
14.83433256345118
 30
0.0
  0
VERTEX
  5
82
330
3C
100
AcDbEntity
  8
CALQUE_1
 62
     7
100
AcDbVertex
100
AcDb2dVertex
 10
1.295150051128117
 20
15.13433167621449
 30
0.0
  0
VERTEX
  5
83
330
3C
100
AcDbEntity
  8
CALQUE_1
 62
     7
100
AcDbVertex
100
AcDb2dVertex
 10
1.895148276654725
 20
15.13433167621449
 30
0.0
  0
VERTEX
  5
84
330
3C
100
AcDbEntity
  8
CALQUE_1
 62
     7
100
AcDbVertex
100
AcDb2dVertex
 10
1.895148276654725
 20
14.83433256345118
 30
0.0
  0
VERTEX
  5
85
330
3C
100
AcDbEntity
  8
CALQUE_1
 62
     7
100
AcDbVertex
100
AcDb2dVertex
 10
2.495146502181333
 20
14.83433256345118
 30
0.0
  0
VERTEX
  5
86
330
3C
100
AcDbEntity
  8
CALQUE_1
 62
     7
100
AcDbVertex
100
AcDb2dVertex
 10
2.495146502181333
 20
15.13433167621449
 30
0.0
  0
VERTEX
  5
87
330
3C
100
AcDbEntity
  8
CALQUE_1
 62
     7
100
AcDbVertex
100
AcDb2dVertex
 10
3.09514472770794
 20
15.13433167621449
 30
0.0
  0
VERTEX
  5
88
330
3C
100
AcDbEntity
  8
CALQUE_1
 62
     7
100
AcDbVertex
100
AcDb2dVertex
 10
3.09514472770794
 20
14.83433256345118
 30
0.0
  0
VERTEX
  5
89
330
3C
100
AcDbEntity
  8
CALQUE_1
 62
     7
100
AcDbVertex
100
AcDb2dVertex
 10
3.695142953234548
 20
14.83433256345118
 30
0.0
  0
VERTEX
  5
8A
330
3C
100
AcDbEntity
  8
CALQUE_1
 62
     7
100
AcDbVertex
100
AcDb2dVertex
 10
3.695142953234548
 20
15.13433167621449
 30
0.0
  0
VERTEX
  5
8B
330
3C
100
AcDbEntity
  8
CALQUE_1
 62
     7
100
AcDbVertex
100
AcDb2dVertex
 10
4.295141178761155
 20
15.13433167621449
 30
0.0
  0
VERTEX
  5
8C
330
3C
100
AcDbEntity
  8
CALQUE_1
 62
     7
100
AcDbVertex
100
AcDb2dVertex
 10
4.295141178761155
 20
14.83433256345118
 30
0.0
  0
VERTEX
  5
8D
330
3C
100
AcDbEntity
  8
CALQUE_1
 62
     7
100
AcDbVertex
100
AcDb2dVertex
 10
4.895139404287763
 20
14.83433256345118
 30
0.0
  0
VERTEX
  5
8E
330
3C
100
AcDbEntity
  8
CALQUE_1
 62
     7
100
AcDbVertex
100
AcDb2dVertex
 10
4.895139404287763
 20
15.13433167621449
 30
0.0
  0
VERTEX
  5
8F
330
3C
100
AcDbEntity
  8
CALQUE_1
 62
     7
100
AcDbVertex
100
AcDb2dVertex
 10
5.49513762981437
 20
15.13433167621449
 30
0.0
  0
VERTEX
  5
90
330
3C
100
AcDbEntity
  8
CALQUE_1
 62
     7
100
AcDbVertex
100
AcDb2dVertex
 10
5.49513762981437
 20
14.83433256345118
 30
0.0
  0
VERTEX
  5
91
330
3C
100
AcDbEntity
  8
CALQUE_1
 62
     7
100
AcDbVertex
100
AcDb2dVertex
 10
6.095135855340978
 20
14.83433256345118
 30
0.0
  0
VERTEX
  5
92
330
3C
100
AcDbEntity
  8
CALQUE_1
 62
     7
100
AcDbVertex
100
AcDb2dVertex
 10
6.095135855340978
 20
15.13433167621449
 30
0.0
  0
VERTEX
  5
93
330
3C
100
AcDbEntity
  8
CALQUE_1
 62
     7
100
AcDbVertex
100
AcDb2dVertex
 10
7.095144381544517
 20
15.13433167621449
 30
0.0
  0
VERTEX
  5
94
330
3C
100
AcDbEntity
  8
CALQUE_1
 62
     7
100
AcDbVertex
100
AcDb2dVertex
 10
7.095144381544517
 20
14.83433256345118
 30
0.0
  0
VERTEX
  5
95
330
3C
100
AcDbEntity
  8
CALQUE_1
 62
     7
100
AcDbVertex
100
AcDb2dVertex
 10
8.095152907748057
 20
14.83433256345118
 30
0.0
  0
VERTEX
  5
96
330
3C
100
AcDbEntity
  8
CALQUE_1
 62
     7
100
AcDbVertex
100
AcDb2dVertex
 10
8.095152907748057
 20
15.78431827020912
 30
0.0
  0
VERTEX
  5
97
330
3C
100
AcDbEntity
  8
CALQUE_1
 62
     7
100
AcDbVertex
100
AcDb2dVertex
 10
7.795153794984753
 20
15.78431827020912
 30
0.0
  0
VERTEX
  5
98
330
3C
100
AcDbEntity
  8
CALQUE_1
 62
     7
100
AcDbVertex
100
AcDb2dVertex
 10
7.795153794984753
 20
16.73430397696706
 30
0.0
  0
VERTEX
  5
99
330
3C
100
AcDbEntity
  8
CALQUE_1
 62
     7
100
AcDbVertex
100
AcDb2dVertex
 10
8.095152907748057
 20
16.73430397696706
 30
0.0
  0
VERTEX
  5
9A
330
3C
100
AcDbEntity
  8
CALQUE_1
 62
     7
100
AcDbVertex
100
AcDb2dVertex
 10
8.095152907748057
 20
17.33433665347124
 30
0.0
  0
VERTEX
  5
9B
330
3C
100
AcDbEntity
  8
CALQUE_1
 62
     7
100
AcDbVertex
100
AcDb2dVertex
 10
7.795153794984753
 20
17.33433665347124
 30
0.0
  0
VERTEX
  5
9C
330
3C
100
AcDbEntity
  8
CALQUE_1
 62
     7
100
AcDbVertex
100
AcDb2dVertex
 10
7.795153794984753
 20
17.93433487899785
 30
0.0
  0
VERTEX
  5
9D
330
3C
100
AcDbEntity
  8
CALQUE_1
 62
     7
100
AcDbVertex
100
AcDb2dVertex
 10
8.095152907748057
 20
17.93433487899785
 30
0.0
  0
VERTEX
  5
9E
330
3C
100
AcDbEntity
  8
CALQUE_1
 62
     7
100
AcDbVertex
100
AcDb2dVertex
 10
8.095152907748057
 20
18.53433310452446
 30
0.0
  0
VERTEX
  5
9F
330
3C
100
AcDbEntity
  8
CALQUE_1
 62
     7
100
AcDbVertex
100
AcDb2dVertex
 10
7.795153794984753
 20
18.53433310452446
 30
0.0
  0
VERTEX
  5
A0
330
3C
100
AcDbEntity
  8
CALQUE_1
 62
     7
100
AcDbVertex
100
AcDb2dVertex
 10
7.795153794984753
 20
19.13433133005107
 30
0.0
  0
VERTEX
  5
A1
330
3C
100
AcDbEntity
  8
CALQUE_1
 62
     7
100
AcDbVertex
100
AcDb2dVertex
 10
8.095152907748057
 20
19.13433133005107
 30
0.0
  0
VERTEX
  5
A2
330
3C
100
AcDbEntity
  8
CALQUE_1
 62
     7
100
AcDbVertex
100
AcDb2dVertex
 10
8.095152907748057
 20
19.73432955557767
 30
0.0
  0
VERTEX
  5
A3
330
3C
100
AcDbEntity
  8
CALQUE_1
 62
     7
100
AcDbVertex
100
AcDb2dVertex
 10
7.795153794984753
 20
19.73432955557767
 30
0.0
  0
VERTEX
  5
A4
330
3C
100
AcDbEntity
  8
CALQUE_1
 62
     7
100
AcDbVertex
100
AcDb2dVertex
 10
7.795153794984753
 20
20.33432778110428
 30
0.0
  0
VERTEX
  5
A5
330
3C
100
AcDbEntity
  8
CALQUE_1
 62
     7
100
AcDbVertex
100
AcDb2dVertex
 10
8.095152907748057
 20
20.33432778110428
 30
0.0
  0
VERTEX
  5
A6
330
3C
100
AcDbEntity
  8
CALQUE_1
 62
     7
100
AcDbVertex
100
AcDb2dVertex
 10
8.095152907748057
 20
20.93432600663089
 30
0.0
  0
VERTEX
  5
A7
330
3C
100
AcDbEntity
  8
CALQUE_1
 62
     7
100
AcDbVertex
100
AcDb2dVertex
 10
7.795153794984753
 20
20.93432600663089
 30
0.0
  0
VERTEX
  5
A8
330
3C
100
AcDbEntity
  8
CALQUE_1
 62
     7
100
AcDbVertex
100
AcDb2dVertex
 10
7.795153794984753
 20
21.53432423215749
 30
0.0
  0
VERTEX
  5
A9
330
3C
100
AcDbEntity
  8
CALQUE_1
 62
     7
100
AcDbVertex
100
AcDb2dVertex
 10
8.095152907748057
 20
21.53432423215749
 30
0.0
  0
VERTEX
  5
AA
330
3C
100
AcDbEntity
  8
CALQUE_1
 62
     7
100
AcDbVertex
100
AcDb2dVertex
 10
8.095152907748057
 20
22.1343224576841
 30
0.0
  0
VERTEX
  5
AB
330
3C
100
AcDbEntity
  8
CALQUE_1
 62
     7
100
AcDbVertex
100
AcDb2dVertex
 10
7.795153794984753
 20
22.1343224576841
 30
0.0
  0
VERTEX
  5
AC
330
3C
100
AcDbEntity
  8
CALQUE_1
 62
     7
100
AcDbVertex
100
AcDb2dVertex
 10
7.795153794984753
 20
22.73432068321071
 30
0.0
  0
VERTEX
  5
AD
330
3C
100
AcDbEntity
  8
CALQUE_1
 62
     7
100
AcDbVertex
100
AcDb2dVertex
 10
8.095152907748057
 20
22.73432068321071
 30
0.0
  0
VERTEX
  5
AE
330
3C
100
AcDbEntity
  8
CALQUE_1
 62
     7
100
AcDbVertex
100
AcDb2dVertex
 10
8.095152907748057
 20
23.33431890873732
 30
0.0
  0
VERTEX
  5
AF
330
3C
100
AcDbEntity
  8
CALQUE_1
 62
     7
100
AcDbVertex
100
AcDb2dVertex
 10
7.795153794984753
 20
23.33431890873732
 30
0.0
  0
VERTEX
  5
B0
330
3C
100
AcDbEntity
  8
CALQUE_1
 62
     7
100
AcDbVertex
100
AcDb2dVertex
 10
7.795153794984753
 20
23.93431713426392
 30
0.0
  0
VERTEX
  5
B1
330
3C
100
AcDbEntity
  8
CALQUE_1
 62
     7
100
AcDbVertex
100
AcDb2dVertex
 10
8.095152907748057
 20
23.93431713426392
 30
0.0
  0
VERTEX
  5
B2
330
3C
100
AcDbEntity
  8
CALQUE_1
 62
     7
100
AcDbVertex
100
AcDb2dVertex
 10
8.095152907748057
 20
24.53431535979053
 30
0.0
  0
VERTEX
  5
B3
330
3C
100
AcDbEntity
  8
CALQUE_1
 62
     7
100
AcDbVertex
100
AcDb2dVertex
 10
7.795153794984753
 20
24.53431535979053
 30
0.0
  0
VERTEX
  5
B4
330
3C
100
AcDbEntity
  8
CALQUE_1
 62
     7
100
AcDbVertex
100
AcDb2dVertex
 10
7.795153794984753
 20
25.13433081080593
 30
0.0
  0
VERTEX
  5
B5
330
3C
100
AcDbEntity
  8
CALQUE_1
 62
     7
100
AcDbVertex
100
AcDb2dVertex
 10
8.095152907748057
 20
25.13433081080593
 30
0.0
  0
VERTEX
  5
B6
330
3C
100
AcDbEntity
  8
CALQUE_1
 62
     7
100
AcDbVertex
100
AcDb2dVertex
 10
8.095152907748057
 20
25.73432903633254
 30
0.0
  0
VERTEX
  5
B7
330
3C
100
AcDbEntity
  8
CALQUE_1
 62
     7
100
AcDbVertex
100
AcDb2dVertex
 10
7.795153794984753
 20
25.73432903633254
 30
0.0
  0
VERTEX
  5
B8
330
3C
100
AcDbEntity
  8
CALQUE_1
 62
     7
100
AcDbVertex
100
AcDb2dVertex
 10
7.795153794984753
 20
26.33432726185914
 30
0.0
  0
VERTEX
  5
B9
330
3C
100
AcDbEntity
  8
CALQUE_1
 62
     7
100
AcDbVertex
100
AcDb2dVertex
 10
8.095152907748057
 20
26.33432726185914
 30
0.0
  0
VERTEX
  5
BA
330
3C
100
AcDbEntity
  8
CALQUE_1
 62
     7
100
AcDbVertex
100
AcDb2dVertex
 10
8.095152907748057
 20
26.93432548738575
 30
0.0
  0
VERTEX
  5
BB
330
3C
100
AcDbEntity
  8
CALQUE_1
 62
     7
100
AcDbVertex
100
AcDb2dVertex
 10
7.795153794984753
 20
26.93432548738575
 30
0.0
  0
VERTEX
  5
BC
330
3C
100
AcDbEntity
  8
CALQUE_1
 62
     7
100
AcDbVertex
100
AcDb2dVertex
 10
7.795153794984753
 20
27.53432371291236
 30
0.0
  0
VERTEX
  5
BD
330
3C
100
AcDbEntity
  8
CALQUE_1
 62
     7
100
AcDbVertex
100
AcDb2dVertex
 10
8.095152907748057
 20
27.53432371291236
 30
0.0
  0
VERTEX
  5
BE
330
3C
100
AcDbEntity
  8
CALQUE_1
 62
     7
100
AcDbVertex
100
AcDb2dVertex
 10
8.095152907748057
 20
28.13432193843897
 30
0.0
  0
VERTEX
  5
BF
330
3C
100
AcDbEntity
  8
CALQUE_1
 62
     7
100
AcDbVertex
100
AcDb2dVertex
 10
7.795153794984753
 20
28.13432193843897
 30
0.0
  0
VERTEX
  5
C0
330
3C
100
AcDbEntity
  8
CALQUE_1
 62
     7
100
AcDbVertex
100
AcDb2dVertex
 10
7.795153794984753
 20
28.73432016396558
 30
0.0
  0
VERTEX
  5
C1
330
3C
100
AcDbEntity
  8
CALQUE_1
 62
     7
100
AcDbVertex
100
AcDb2dVertex
 10
8.095152907748057
 20
28.73432016396558
 30
0.0
  0
VERTEX
  5
C2
330
3C
100
AcDbEntity
  8
CALQUE_1
 62
     7
100
AcDbVertex
100
AcDb2dVertex
 10
8.095152907748057
 20
29.33433561498097
 30
0.0
  0
VERTEX
  5
C3
330
3C
100
AcDbEntity
  8
CALQUE_1
 62
     7
100
AcDbVertex
100
AcDb2dVertex
 10
7.795153794984753
 20
29.33433561498097
 30
0.0
  0
VERTEX
  5
C4
330
3C
100
AcDbEntity
  8
CALQUE_1
 62
     7
100
AcDbVertex
100
AcDb2dVertex
 10
7.795153794984753
 20
29.93433384050758
 30
0.0
  0
VERTEX
  5
C5
330
3C
100
AcDbEntity
  8
CALQUE_1
 62
     7
100
AcDbVertex
100
AcDb2dVertex
 10
8.095152907748057
 20
29.93433384050758
 30
0.0
  0
VERTEX
  5
C6
330
3C
100
AcDbEntity
  8
CALQUE_1
 62
     7
100
AcDbVertex
100
AcDb2dVertex
 10
8.095152907748057
 20
30.53433206603419
 30
0.0
  0
VERTEX
  5
C7
330
3C
100
AcDbEntity
  8
CALQUE_1
 62
     7
100
AcDbVertex
100
AcDb2dVertex
 10
7.795153794984753
 20
30.53433206603419
 30
0.0
  0
VERTEX
  5
C8
330
3C
100
AcDbEntity
  8
CALQUE_1
 62
     7
100
AcDbVertex
100
AcDb2dVertex
 10
7.795153794984753
 20
31.1343302915608
 30
0.0
  0
VERTEX
  5
C9
330
3C
100
AcDbEntity
  8
CALQUE_1
 62
     7
100
AcDbVertex
100
AcDb2dVertex
 10
8.095152907748057
 20
31.1343302915608
 30
0.0
  0
VERTEX
  5
CA
330
3C
100
AcDbEntity
  8
CALQUE_1
 62
     7
100
AcDbVertex
100
AcDb2dVertex
 10
8.095152907748057
 20
31.73432851708741
 30
0.0
  0
VERTEX
  5
CB
330
3C
100
AcDbEntity
  8
CALQUE_1
 62
     7
100
AcDbVertex
100
AcDb2dVertex
 10
7.795153794984753
 20
31.73432851708741
 30
0.0
  0
VERTEX
  5
CC
330
3C
100
AcDbEntity
  8
CALQUE_1
 62
     7
100
AcDbVertex
100
AcDb2dVertex
 10
7.795153794984753
 20
32.33432674261401
 30
0.0
  0
VERTEX
  5
CD
330
3C
100
AcDbEntity
  8
CALQUE_1
 62
     7
100
AcDbVertex
100
AcDb2dVertex
 10
8.095152907748057
 20
32.33432674261401
 30
0.0
  0
VERTEX
  5
CE
330
3C
100
AcDbEntity
  8
CALQUE_1
 62
     7
100
AcDbVertex
100
AcDb2dVertex
 10
8.095152907748057
 20
32.93432496814062
 30
0.0
  0
VERTEX
  5
CF
330
3C
100
AcDbEntity
  8
CALQUE_1
 62
     7
100
AcDbVertex
100
AcDb2dVertex
 10
7.795153794984753
 20
32.93432496814062
 30
0.0
  0
VERTEX
  5
D0
330
3C
100
AcDbEntity
  8
CALQUE_1
 62
     7
100
AcDbVertex
100
AcDb2dVertex
 10
7.795153794984753
 20
33.88432790038735
 30
0.0
  0
VERTEX
  5
D1
330
3C
100
AcDbEntity
  8
CALQUE_1
 62
     7
100
AcDbVertex
100
AcDb2dVertex
 10
8.095152907748057
 20
33.88432790038735
 30
0.0
  0
SEQEND
  5
D2
330
3C
100
AcDbEntity
  8
CALQUE_1
  0
POLYLINE
  5
D3
330
1F
100
AcDbEntity
  8
CALQUE_1
 62
     7
100
AcDb2dPolyline
 66
     1
 10
0.0
 20
0.0
 30
0.0
  0
VERTEX
  5
D4
330
D3
100
AcDbEntity
  8
CALQUE_1
 62
     7
100
AcDbVertex
100
AcDb2dVertex
 10
20.09515186925779
 20
34.53433171987076
 30
0.0
  0
VERTEX
  5
D5
330
D3
100
AcDbEntity
  8
CALQUE_1
 62
     7
100
AcDbVertex
100
AcDb2dVertex
 10
19.09514334305425
 20
34.53433171987076
 30
0.0
  0
VERTEX
  5
D6
330
D3
100
AcDbEntity
  8
CALQUE_1
 62
     7
100
AcDbVertex
100
AcDb2dVertex
 10
19.09514334305425
 20
34.83433083263407
 30
0.0
  0
VERTEX
  5
D7
330
D3
100
AcDbEntity
  8
CALQUE_1
 62
     7
100
AcDbVertex
100
AcDb2dVertex
 10
18.49514511752764
 20
34.83433083263407
 30
0.0
  0
VERTEX
  5
D8
330
D3
100
AcDbEntity
  8
CALQUE_1
 62
     7
100
AcDbVertex
100
AcDb2dVertex
 10
18.49514511752764
 20
34.53433171987076
 30
0.0
  0
VERTEX
  5
D9
330
D3
100
AcDbEntity
  8
CALQUE_1
 62
     7
100
AcDbVertex
100
AcDb2dVertex
 10
17.89514689200103
 20
34.53433171987076
 30
0.0
  0
VERTEX
  5
DA
330
D3
100
AcDbEntity
  8
CALQUE_1
 62
     7
100
AcDbVertex
100
AcDb2dVertex
 10
17.89514689200103
 20
34.83433083263407
 30
0.0
  0
VERTEX
  5
DB
330
D3
100
AcDbEntity
  8
CALQUE_1
 62
     7
100
AcDbVertex
100
AcDb2dVertex
 10
17.29514866647443
 20
34.83433083263407
 30
0.0
  0
VERTEX
  5
DC
330
D3
100
AcDbEntity
  8
CALQUE_1
 62
     7
100
AcDbVertex
100
AcDb2dVertex
 10
17.29514866647443
 20
34.53433171987076
 30
0.0
  0
VERTEX
  5
DD
330
D3
100
AcDbEntity
  8
CALQUE_1
 62
     7
100
AcDbVertex
100
AcDb2dVertex
 10
16.69515044094782
 20
34.53433171987076
 30
0.0
  0
VERTEX
  5
DE
330
D3
100
AcDbEntity
  8
CALQUE_1
 62
     7
100
AcDbVertex
100
AcDb2dVertex
 10
16.69515044094782
 20
34.83433083263407
 30
0.0
  0
VERTEX
  5
DF
330
D3
100
AcDbEntity
  8
CALQUE_1
 62
     7
100
AcDbVertex
100
AcDb2dVertex
 10
16.09515221542121
 20
34.83433083263407
 30
0.0
  0
VERTEX
  5
E0
330
D3
100
AcDbEntity
  8
CALQUE_1
 62
     7
100
AcDbVertex
100
AcDb2dVertex
 10
16.09515221542121
 20
34.53433171987076
 30
0.0
  0
VERTEX
  5
E1
330
D3
100
AcDbEntity
  8
CALQUE_1
 62
     7
100
AcDbVertex
100
AcDb2dVertex
 10
15.4951539898946
 20
34.53433171987076
 30
0.0
  0
VERTEX
  5
E2
330
D3
100
AcDbEntity
  8
CALQUE_1
 62
     7
100
AcDbVertex
100
AcDb2dVertex
 10
15.4951539898946
 20
34.83433083263407
 30
0.0
  0
VERTEX
  5
E3
330
D3
100
AcDbEntity
  8
CALQUE_1
 62
     7
100
AcDbVertex
100
AcDb2dVertex
 10
14.895155764368
 20
34.83433083263407
 30
0.0
  0
VERTEX
  5
E4
330
D3
100
AcDbEntity
  8
CALQUE_1
 62
     7
100
AcDbVertex
100
AcDb2dVertex
 10
14.895155764368
 20
34.53433171987076
 30
0.0
  0
VERTEX
  5
E5
330
D3
100
AcDbEntity
  8
CALQUE_1
 62
     7
100
AcDbVertex
100
AcDb2dVertex
 10
14.29515753884139
 20
34.53433171987076
 30
0.0
  0
VERTEX
  5
E6
330
D3
100
AcDbEntity
  8
CALQUE_1
 62
     7
100
AcDbVertex
100
AcDb2dVertex
 10
14.29515753884139
 20
34.83433083263407
 30
0.0
  0
VERTEX
  5
E7
330
D3
100
AcDbEntity
  8
CALQUE_1
 62
     7
100
AcDbVertex
100
AcDb2dVertex
 10
13.6951248623372
 20
34.83433083263407
 30
0.0
  0
VERTEX
  5
E8
330
D3
100
AcDbEntity
  8
CALQUE_1
 62
     7
100
AcDbVertex
100
AcDb2dVertex
 10
13.6951248623372
 20
34.53433171987076
 30
0.0
  0
VERTEX
  5
E9
330
D3
100
AcDbEntity
  8
CALQUE_1
 62
     7
100
AcDbVertex
100
AcDb2dVertex
 10
13.09512663681059
 20
34.53433171987076
 30
0.0
  0
VERTEX
  5
EA
330
D3
100
AcDbEntity
  8
CALQUE_1
 62
     7
100
AcDbVertex
100
AcDb2dVertex
 10
13.09512663681059
 20
34.83433083263407
 30
0.0
  0
VERTEX
  5
EB
330
D3
100
AcDbEntity
  8
CALQUE_1
 62
     7
100
AcDbVertex
100
AcDb2dVertex
 10
12.49512841128399
 20
34.83433083263407
 30
0.0
  0
VERTEX
  5
EC
330
D3
100
AcDbEntity
  8
CALQUE_1
 62
     7
100
AcDbVertex
100
AcDb2dVertex
 10
12.49512841128399
 20
34.53433171987076
 30
0.0
  0
VERTEX
  5
ED
330
D3
100
AcDbEntity
  8
CALQUE_1
 62
     7
100
AcDbVertex
100
AcDb2dVertex
 10
11.89513018575738
 20
34.53433171987076
 30
0.0
  0
VERTEX
  5
EE
330
D3
100
AcDbEntity
  8
CALQUE_1
 62
     7
100
AcDbVertex
100
AcDb2dVertex
 10
11.89513018575738
 20
34.83433083263407
 30
0.0
  0
VERTEX
  5
EF
330
D3
100
AcDbEntity
  8
CALQUE_1
 62
     7
100
AcDbVertex
100
AcDb2dVertex
 10
11.29513196023077
 20
34.83433083263407
 30
0.0
  0
VERTEX
  5
F0
330
D3
100
AcDbEntity
  8
CALQUE_1
 62
     7
100
AcDbVertex
100
AcDb2dVertex
 10
11.29513196023077
 20
34.53433171987076
 30
0.0
  0
VERTEX
  5
F1
330
D3
100
AcDbEntity
  8
CALQUE_1
 62
     7
100
AcDbVertex
100
AcDb2dVertex
 10
10.69513373470416
 20
34.53433171987076
 30
0.0
  0
VERTEX
  5
F2
330
D3
100
AcDbEntity
  8
CALQUE_1
 62
     7
100
AcDbVertex
100
AcDb2dVertex
 10
10.69513373470416
 20
34.83433083263407
 30
0.0
  0
VERTEX
  5
F3
330
D3
100
AcDbEntity
  8
CALQUE_1
 62
     7
100
AcDbVertex
100
AcDb2dVertex
 10
10.09513550917756
 20
34.83433083263407
 30
0.0
  0
VERTEX
  5
F4
330
D3
100
AcDbEntity
  8
CALQUE_1
 62
     7
100
AcDbVertex
100
AcDb2dVertex
 10
10.09513550917756
 20
34.53433171987076
 30
0.0
  0
VERTEX
  5
F5
330
D3
100
AcDbEntity
  8
CALQUE_1
 62
     7
100
AcDbVertex
100
AcDb2dVertex
 10
9.095126982974016
 20
34.53433171987076
 30
0.0
  0
VERTEX
  5
F6
330
D3
100
AcDbEntity
  8
CALQUE_1
 62
     7
100
AcDbVertex
100
AcDb2dVertex
 10
9.095126982974016
 20
34.83433083263407
 30
0.0
  0
VERTEX
  5
F7
330
D3
100
AcDbEntity
  8
CALQUE_1
 62
     7
100
AcDbVertex
100
AcDb2dVertex
 10
8.095152907748057
 20
34.83433083263407
 30
0.0
  0
VERTEX
  5
F8
330
D3
100
AcDbEntity
  8
CALQUE_1
 62
     7
100
AcDbVertex
100
AcDb2dVertex
 10
8.095152907748057
 20
33.88432790038735
 30
0.0
  0
VERTEX
  5
F9
330
D3
100
AcDbEntity
  8
CALQUE_1
 62
     7
100
AcDbVertex
100
AcDb2dVertex
 10
8.395152020511361
 20
33.88432790038735
 30
0.0
  0
VERTEX
  5
FA
330
D3
100
AcDbEntity
  8
CALQUE_1
 62
     7
100
AcDbVertex
100
AcDb2dVertex
 10
8.395152020511361
 20
32.93432496814062
 30
0.0
  0
VERTEX
  5
FB
330
D3
100
AcDbEntity
  8
CALQUE_1
 62
     7
100
AcDbVertex
100
AcDb2dVertex
 10
8.095152907748057
 20
32.93432496814062
 30
0.0
  0
VERTEX
  5
FC
330
D3
100
AcDbEntity
  8
CALQUE_1
 62
     7
100
AcDbVertex
100
AcDb2dVertex
 10
8.095152907748057
 20
32.33432674261401
 30
0.0
  0
VERTEX
  5
FD
330
D3
100
AcDbEntity
  8
CALQUE_1
 62
     7
100
AcDbVertex
100
AcDb2dVertex
 10
8.395152020511361
 20
32.33432674261401
 30
0.0
  0
VERTEX
  5
FE
330
D3
100
AcDbEntity
  8
CALQUE_1
 62
     7
100
AcDbVertex
100
AcDb2dVertex
 10
8.395152020511361
 20
31.73432851708741
 30
0.0
  0
VERTEX
  5
FF
330
D3
100
AcDbEntity
  8
CALQUE_1
 62
     7
100
AcDbVertex
100
AcDb2dVertex
 10
8.095152907748057
 20
31.73432851708741
 30
0.0
  0
VERTEX
  5
100
330
D3
100
AcDbEntity
  8
CALQUE_1
 62
     7
100
AcDbVertex
100
AcDb2dVertex
 10
8.095152907748057
 20
31.1343302915608
 30
0.0
  0
VERTEX
  5
101
330
D3
100
AcDbEntity
  8
CALQUE_1
 62
     7
100
AcDbVertex
100
AcDb2dVertex
 10
8.395152020511361
 20
31.1343302915608
 30
0.0
  0
VERTEX
  5
102
330
D3
100
AcDbEntity
  8
CALQUE_1
 62
     7
100
AcDbVertex
100
AcDb2dVertex
 10
8.395152020511361
 20
30.53433206603419
 30
0.0
  0
VERTEX
  5
103
330
D3
100
AcDbEntity
  8
CALQUE_1
 62
     7
100
AcDbVertex
100
AcDb2dVertex
 10
8.095152907748057
 20
30.53433206603419
 30
0.0
  0
VERTEX
  5
104
330
D3
100
AcDbEntity
  8
CALQUE_1
 62
     7
100
AcDbVertex
100
AcDb2dVertex
 10
8.095152907748057
 20
29.93433384050758
 30
0.0
  0
VERTEX
  5
105
330
D3
100
AcDbEntity
  8
CALQUE_1
 62
     7
100
AcDbVertex
100
AcDb2dVertex
 10
8.395152020511361
 20
29.93433384050758
 30
0.0
  0
VERTEX
  5
106
330
D3
100
AcDbEntity
  8
CALQUE_1
 62
     7
100
AcDbVertex
100
AcDb2dVertex
 10
8.395152020511361
 20
29.33433561498097
 30
0.0
  0
VERTEX
  5
107
330
D3
100
AcDbEntity
  8
CALQUE_1
 62
     7
100
AcDbVertex
100
AcDb2dVertex
 10
8.095152907748057
 20
29.33433561498097
 30
0.0
  0
VERTEX
  5
108
330
D3
100
AcDbEntity
  8
CALQUE_1
 62
     7
100
AcDbVertex
100
AcDb2dVertex
 10
8.095152907748057
 20
28.73432016396558
 30
0.0
  0
VERTEX
  5
109
330
D3
100
AcDbEntity
  8
CALQUE_1
 62
     7
100
AcDbVertex
100
AcDb2dVertex
 10
8.395152020511361
 20
28.73432016396558
 30
0.0
  0
VERTEX
  5
10A
330
D3
100
AcDbEntity
  8
CALQUE_1
 62
     7
100
AcDbVertex
100
AcDb2dVertex
 10
8.395152020511361
 20
28.13432193843897
 30
0.0
  0
VERTEX
  5
10B
330
D3
100
AcDbEntity
  8
CALQUE_1
 62
     7
100
AcDbVertex
100
AcDb2dVertex
 10
8.095152907748057
 20
28.13432193843897
 30
0.0
  0
VERTEX
  5
10C
330
D3
100
AcDbEntity
  8
CALQUE_1
 62
     7
100
AcDbVertex
100
AcDb2dVertex
 10
8.095152907748057
 20
27.53432371291236
 30
0.0
  0
VERTEX
  5
10D
330
D3
100
AcDbEntity
  8
CALQUE_1
 62
     7
100
AcDbVertex
100
AcDb2dVertex
 10
8.395152020511361
 20
27.53432371291236
 30
0.0
  0
VERTEX
  5
10E
330
D3
100
AcDbEntity
  8
CALQUE_1
 62
     7
100
AcDbVertex
100
AcDb2dVertex
 10
8.395152020511361
 20
26.93432548738575
 30
0.0
  0
VERTEX
  5
10F
330
D3
100
AcDbEntity
  8
CALQUE_1
 62
     7
100
AcDbVertex
100
AcDb2dVertex
 10
8.095152907748057
 20
26.93432548738575
 30
0.0
  0
VERTEX
  5
110
330
D3
100
AcDbEntity
  8
CALQUE_1
 62
     7
100
AcDbVertex
100
AcDb2dVertex
 10
8.095152907748057
 20
26.33432726185914
 30
0.0
  0
VERTEX
  5
111
330
D3
100
AcDbEntity
  8
CALQUE_1
 62
     7
100
AcDbVertex
100
AcDb2dVertex
 10
8.395152020511361
 20
26.33432726185914
 30
0.0
  0
VERTEX
  5
112
330
D3
100
AcDbEntity
  8
CALQUE_1
 62
     7
100
AcDbVertex
100
AcDb2dVertex
 10
8.395152020511361
 20
25.73432903633254
 30
0.0
  0
VERTEX
  5
113
330
D3
100
AcDbEntity
  8
CALQUE_1
 62
     7
100
AcDbVertex
100
AcDb2dVertex
 10
8.095152907748057
 20
25.73432903633254
 30
0.0
  0
VERTEX
  5
114
330
D3
100
AcDbEntity
  8
CALQUE_1
 62
     7
100
AcDbVertex
100
AcDb2dVertex
 10
8.095152907748057
 20
25.13433081080593
 30
0.0
  0
VERTEX
  5
115
330
D3
100
AcDbEntity
  8
CALQUE_1
 62
     7
100
AcDbVertex
100
AcDb2dVertex
 10
8.395152020511361
 20
25.13433081080593
 30
0.0
  0
VERTEX
  5
116
330
D3
100
AcDbEntity
  8
CALQUE_1
 62
     7
100
AcDbVertex
100
AcDb2dVertex
 10
8.395152020511361
 20
24.53431535979053
 30
0.0
  0
VERTEX
  5
117
330
D3
100
AcDbEntity
  8
CALQUE_1
 62
     7
100
AcDbVertex
100
AcDb2dVertex
 10
8.095152907748057
 20
24.53431535979053
 30
0.0
  0
VERTEX
  5
118
330
D3
100
AcDbEntity
  8
CALQUE_1
 62
     7
100
AcDbVertex
100
AcDb2dVertex
 10
8.095152907748057
 20
23.93431713426392
 30
0.0
  0
VERTEX
  5
119
330
D3
100
AcDbEntity
  8
CALQUE_1
 62
     7
100
AcDbVertex
100
AcDb2dVertex
 10
8.395152020511361
 20
23.93431713426392
 30
0.0
  0
VERTEX
  5
11A
330
D3
100
AcDbEntity
  8
CALQUE_1
 62
     7
100
AcDbVertex
100
AcDb2dVertex
 10
8.395152020511361
 20
23.33431890873732
 30
0.0
  0
VERTEX
  5
11B
330
D3
100
AcDbEntity
  8
CALQUE_1
 62
     7
100
AcDbVertex
100
AcDb2dVertex
 10
8.095152907748057
 20
23.33431890873732
 30
0.0
  0
VERTEX
  5
11C
330
D3
100
AcDbEntity
  8
CALQUE_1
 62
     7
100
AcDbVertex
100
AcDb2dVertex
 10
8.095152907748057
 20
22.73432068321071
 30
0.0
  0
VERTEX
  5
11D
330
D3
100
AcDbEntity
  8
CALQUE_1
 62
     7
100
AcDbVertex
100
AcDb2dVertex
 10
8.395152020511361
 20
22.73432068321071
 30
0.0
  0
VERTEX
  5
11E
330
D3
100
AcDbEntity
  8
CALQUE_1
 62
     7
100
AcDbVertex
100
AcDb2dVertex
 10
8.395152020511361
 20
22.1343224576841
 30
0.0
  0
VERTEX
  5
11F
330
D3
100
AcDbEntity
  8
CALQUE_1
 62
     7
100
AcDbVertex
100
AcDb2dVertex
 10
8.095152907748057
 20
22.1343224576841
 30
0.0
  0
VERTEX
  5
120
330
D3
100
AcDbEntity
  8
CALQUE_1
 62
     7
100
AcDbVertex
100
AcDb2dVertex
 10
8.095152907748057
 20
21.53432423215749
 30
0.0
  0
VERTEX
  5
121
330
D3
100
AcDbEntity
  8
CALQUE_1
 62
     7
100
AcDbVertex
100
AcDb2dVertex
 10
8.395152020511361
 20
21.53432423215749
 30
0.0
  0
VERTEX
  5
122
330
D3
100
AcDbEntity
  8
CALQUE_1
 62
     7
100
AcDbVertex
100
AcDb2dVertex
 10
8.395152020511361
 20
20.93432600663089
 30
0.0
  0
VERTEX
  5
123
330
D3
100
AcDbEntity
  8
CALQUE_1
 62
     7
100
AcDbVertex
100
AcDb2dVertex
 10
8.095152907748057
 20
20.93432600663089
 30
0.0
  0
VERTEX
  5
124
330
D3
100
AcDbEntity
  8
CALQUE_1
 62
     7
100
AcDbVertex
100
AcDb2dVertex
 10
8.095152907748057
 20
20.33432778110428
 30
0.0
  0
VERTEX
  5
125
330
D3
100
AcDbEntity
  8
CALQUE_1
 62
     7
100
AcDbVertex
100
AcDb2dVertex
 10
8.395152020511361
 20
20.33432778110428
 30
0.0
  0
VERTEX
  5
126
330
D3
100
AcDbEntity
  8
CALQUE_1
 62
     7
100
AcDbVertex
100
AcDb2dVertex
 10
8.395152020511361
 20
19.73432955557767
 30
0.0
  0
VERTEX
  5
127
330
D3
100
AcDbEntity
  8
CALQUE_1
 62
     7
100
AcDbVertex
100
AcDb2dVertex
 10
8.095152907748057
 20
19.73432955557767
 30
0.0
  0
VERTEX
  5
128
330
D3
100
AcDbEntity
  8
CALQUE_1
 62
     7
100
AcDbVertex
100
AcDb2dVertex
 10
8.095152907748057
 20
19.13433133005107
 30
0.0
  0
VERTEX
  5
129
330
D3
100
AcDbEntity
  8
CALQUE_1
 62
     7
100
AcDbVertex
100
AcDb2dVertex
 10
8.395152020511361
 20
19.13433133005107
 30
0.0
  0
VERTEX
  5
12A
330
D3
100
AcDbEntity
  8
CALQUE_1
 62
     7
100
AcDbVertex
100
AcDb2dVertex
 10
8.395152020511361
 20
18.53433310452446
 30
0.0
  0
VERTEX
  5
12B
330
D3
100
AcDbEntity
  8
CALQUE_1
 62
     7
100
AcDbVertex
100
AcDb2dVertex
 10
8.095152907748057
 20
18.53433310452446
 30
0.0
  0
VERTEX
  5
12C
330
D3
100
AcDbEntity
  8
CALQUE_1
 62
     7
100
AcDbVertex
100
AcDb2dVertex
 10
8.095152907748057
 20
17.93433487899785
 30
0.0
  0
VERTEX
  5
12D
330
D3
100
AcDbEntity
  8
CALQUE_1
 62
     7
100
AcDbVertex
100
AcDb2dVertex
 10
8.395152020511361
 20
17.93433487899785
 30
0.0
  0
VERTEX
  5
12E
330
D3
100
AcDbEntity
  8
CALQUE_1
 62
     7
100
AcDbVertex
100
AcDb2dVertex
 10
8.395152020511361
 20
17.33433665347124
 30
0.0
  0
VERTEX
  5
12F
330
D3
100
AcDbEntity
  8
CALQUE_1
 62
     7
100
AcDbVertex
100
AcDb2dVertex
 10
8.095152907748057
 20
17.33433665347124
 30
0.0
  0
VERTEX
  5
130
330
D3
100
AcDbEntity
  8
CALQUE_1
 62
     7
100
AcDbVertex
100
AcDb2dVertex
 10
8.095152907748057
 20
16.73430397696706
 30
0.0
  0
VERTEX
  5
131
330
D3
100
AcDbEntity
  8
CALQUE_1
 62
     7
100
AcDbVertex
100
AcDb2dVertex
 10
8.395152020511361
 20
16.73430397696706
 30
0.0
  0
VERTEX
  5
132
330
D3
100
AcDbEntity
  8
CALQUE_1
 62
     7
100
AcDbVertex
100
AcDb2dVertex
 10
8.395152020511361
 20
15.78431827020912
 30
0.0
  0
VERTEX
  5
133
330
D3
100
AcDbEntity
  8
CALQUE_1
 62
     7
100
AcDbVertex
100
AcDb2dVertex
 10
8.095152907748057
 20
15.78431827020912
 30
0.0
  0
VERTEX
  5
134
330
D3
100
AcDbEntity
  8
CALQUE_1
 62
     7
100
AcDbVertex
100
AcDb2dVertex
 10
8.095152907748057
 20
14.83433256345118
 30
0.0
  0
VERTEX
  5
135
330
D3
100
AcDbEntity
  8
CALQUE_1
 62
     7
100
AcDbVertex
100
AcDb2dVertex
 10
9.095126982974016
 20
14.83433256345118
 30
0.0
  0
VERTEX
  5
136
330
D3
100
AcDbEntity
  8
CALQUE_1
 62
     7
100
AcDbVertex
100
AcDb2dVertex
 10
9.095126982974016
 20
15.13433167621449
 30
0.0
  0
VERTEX
  5
137
330
D3
100
AcDbEntity
  8
CALQUE_1
 62
     7
100
AcDbVertex
100
AcDb2dVertex
 10
10.09513550917756
 20
15.13433167621449
 30
0.0
  0
VERTEX
  5
138
330
D3
100
AcDbEntity
  8
CALQUE_1
 62
     7
100
AcDbVertex
100
AcDb2dVertex
 10
10.09513550917756
 20
14.83433256345118
 30
0.0
  0
VERTEX
  5
139
330
D3
100
AcDbEntity
  8
CALQUE_1
 62
     7
100
AcDbVertex
100
AcDb2dVertex
 10
10.69513373470416
 20
14.83433256345118
 30
0.0
  0
VERTEX
  5
13A
330
D3
100
AcDbEntity
  8
CALQUE_1
 62
     7
100
AcDbVertex
100
AcDb2dVertex
 10
10.69513373470416
 20
15.13433167621449
 30
0.0
  0
VERTEX
  5
13B
330
D3
100
AcDbEntity
  8
CALQUE_1
 62
     7
100
AcDbVertex
100
AcDb2dVertex
 10
11.29513196023077
 20
15.13433167621449
 30
0.0
  0
VERTEX
  5
13C
330
D3
100
AcDbEntity
  8
CALQUE_1
 62
     7
100
AcDbVertex
100
AcDb2dVertex
 10
11.29513196023077
 20
14.83433256345118
 30
0.0
  0
VERTEX
  5
13D
330
D3
100
AcDbEntity
  8
CALQUE_1
 62
     7
100
AcDbVertex
100
AcDb2dVertex
 10
11.89513018575738
 20
14.83433256345118
 30
0.0
  0
VERTEX
  5
13E
330
D3
100
AcDbEntity
  8
CALQUE_1
 62
     7
100
AcDbVertex
100
AcDb2dVertex
 10
11.89513018575738
 20
15.13433167621449
 30
0.0
  0
VERTEX
  5
13F
330
D3
100
AcDbEntity
  8
CALQUE_1
 62
     7
100
AcDbVertex
100
AcDb2dVertex
 10
12.49512841128399
 20
15.13433167621449
 30
0.0
  0
VERTEX
  5
140
330
D3
100
AcDbEntity
  8
CALQUE_1
 62
     7
100
AcDbVertex
100
AcDb2dVertex
 10
12.49512841128399
 20
14.83433256345118
 30
0.0
  0
VERTEX
  5
141
330
D3
100
AcDbEntity
  8
CALQUE_1
 62
     7
100
AcDbVertex
100
AcDb2dVertex
 10
13.09512663681059
 20
14.83433256345118
 30
0.0
  0
VERTEX
  5
142
330
D3
100
AcDbEntity
  8
CALQUE_1
 62
     7
100
AcDbVertex
100
AcDb2dVertex
 10
13.09512663681059
 20
15.13433167621449
 30
0.0
  0
VERTEX
  5
143
330
D3
100
AcDbEntity
  8
CALQUE_1
 62
     7
100
AcDbVertex
100
AcDb2dVertex
 10
13.6951248623372
 20
15.13433167621449
 30
0.0
  0
VERTEX
  5
144
330
D3
100
AcDbEntity
  8
CALQUE_1
 62
     7
100
AcDbVertex
100
AcDb2dVertex
 10
13.6951248623372
 20
14.83433256345118
 30
0.0
  0
VERTEX
  5
145
330
D3
100
AcDbEntity
  8
CALQUE_1
 62
     7
100
AcDbVertex
100
AcDb2dVertex
 10
14.29515753884139
 20
14.83433256345118
 30
0.0
  0
VERTEX
  5
146
330
D3
100
AcDbEntity
  8
CALQUE_1
 62
     7
100
AcDbVertex
100
AcDb2dVertex
 10
14.29515753884139
 20
15.13433167621449
 30
0.0
  0
VERTEX
  5
147
330
D3
100
AcDbEntity
  8
CALQUE_1
 62
     7
100
AcDbVertex
100
AcDb2dVertex
 10
14.895155764368
 20
15.13433167621449
 30
0.0
  0
VERTEX
  5
148
330
D3
100
AcDbEntity
  8
CALQUE_1
 62
     7
100
AcDbVertex
100
AcDb2dVertex
 10
14.895155764368
 20
14.83433256345118
 30
0.0
  0
VERTEX
  5
149
330
D3
100
AcDbEntity
  8
CALQUE_1
 62
     7
100
AcDbVertex
100
AcDb2dVertex
 10
15.4951539898946
 20
14.83433256345118
 30
0.0
  0
VERTEX
  5
14A
330
D3
100
AcDbEntity
  8
CALQUE_1
 62
     7
100
AcDbVertex
100
AcDb2dVertex
 10
15.4951539898946
 20
15.13433167621449
 30
0.0
  0
VERTEX
  5
14B
330
D3
100
AcDbEntity
  8
CALQUE_1
 62
     7
100
AcDbVertex
100
AcDb2dVertex
 10
16.09515221542121
 20
15.13433167621449
 30
0.0
  0
VERTEX
  5
14C
330
D3
100
AcDbEntity
  8
CALQUE_1
 62
     7
100
AcDbVertex
100
AcDb2dVertex
 10
16.09515221542121
 20
14.83433256345118
 30
0.0
  0
VERTEX
  5
14D
330
D3
100
AcDbEntity
  8
CALQUE_1
 62
     7
100
AcDbVertex
100
AcDb2dVertex
 10
16.69515044094782
 20
14.83433256345118
 30
0.0
  0
VERTEX
  5
14E
330
D3
100
AcDbEntity
  8
CALQUE_1
 62
     7
100
AcDbVertex
100
AcDb2dVertex
 10
16.69515044094782
 20
15.13433167621449
 30
0.0
  0
VERTEX
  5
14F
330
D3
100
AcDbEntity
  8
CALQUE_1
 62
     7
100
AcDbVertex
100
AcDb2dVertex
 10
17.29514866647443
 20
15.13433167621449
 30
0.0
  0
VERTEX
  5
150
330
D3
100
AcDbEntity
  8
CALQUE_1
 62
     7
100
AcDbVertex
100
AcDb2dVertex
 10
17.29514866647443
 20
14.83433256345118
 30
0.0
  0
VERTEX
  5
151
330
D3
100
AcDbEntity
  8
CALQUE_1
 62
     7
100
AcDbVertex
100
AcDb2dVertex
 10
17.89514689200103
 20
14.83433256345118
 30
0.0
  0
VERTEX
  5
152
330
D3
100
AcDbEntity
  8
CALQUE_1
 62
     7
100
AcDbVertex
100
AcDb2dVertex
 10
17.89514689200103
 20
15.13433167621449
 30
0.0
  0
VERTEX
  5
153
330
D3
100
AcDbEntity
  8
CALQUE_1
 62
     7
100
AcDbVertex
100
AcDb2dVertex
 10
18.49514511752764
 20
15.13433167621449
 30
0.0
  0
VERTEX
  5
154
330
D3
100
AcDbEntity
  8
CALQUE_1
 62
     7
100
AcDbVertex
100
AcDb2dVertex
 10
18.49514511752764
 20
14.83433256345118
 30
0.0
  0
VERTEX
  5
155
330
D3
100
AcDbEntity
  8
CALQUE_1
 62
     7
100
AcDbVertex
100
AcDb2dVertex
 10
19.09514334305425
 20
14.83433256345118
 30
0.0
  0
VERTEX
  5
156
330
D3
100
AcDbEntity
  8
CALQUE_1
 62
     7
100
AcDbVertex
100
AcDb2dVertex
 10
19.09514334305425
 20
15.13433167621449
 30
0.0
  0
VERTEX
  5
157
330
D3
100
AcDbEntity
  8
CALQUE_1
 62
     7
100
AcDbVertex
100
AcDb2dVertex
 10
20.09515186925779
 20
15.13433167621449
 30
0.0
  0
VERTEX
  5
158
330
D3
100
AcDbEntity
  8
CALQUE_1
 62
     7
100
AcDbVertex
100
AcDb2dVertex
 10
20.09515186925779
 20
14.83433256345118
 30
0.0
  0
VERTEX
  5
159
330
D3
100
AcDbEntity
  8
CALQUE_1
 62
     7
100
AcDbVertex
100
AcDb2dVertex
 10
21.09516039546133
 20
14.83433256345118
 30
0.0
  0
VERTEX
  5
15A
330
D3
100
AcDbEntity
  8
CALQUE_1
 62
     7
100
AcDbVertex
100
AcDb2dVertex
 10
21.09516039546133
 20
15.78431827020912
 30
0.0
  0
VERTEX
  5
15B
330
D3
100
AcDbEntity
  8
CALQUE_1
 62
     7
100
AcDbVertex
100
AcDb2dVertex
 10
20.79516128269803
 20
15.78431827020912
 30
0.0
  0
VERTEX
  5
15C
330
D3
100
AcDbEntity
  8
CALQUE_1
 62
     7
100
AcDbVertex
100
AcDb2dVertex
 10
20.79516128269803
 20
16.73430397696706
 30
0.0
  0
VERTEX
  5
15D
330
D3
100
AcDbEntity
  8
CALQUE_1
 62
     7
100
AcDbVertex
100
AcDb2dVertex
 10
21.09516039546133
 20
16.73430397696706
 30
0.0
  0
VERTEX
  5
15E
330
D3
100
AcDbEntity
  8
CALQUE_1
 62
     7
100
AcDbVertex
100
AcDb2dVertex
 10
21.09516039546133
 20
17.33433665347124
 30
0.0
  0
VERTEX
  5
15F
330
D3
100
AcDbEntity
  8
CALQUE_1
 62
     7
100
AcDbVertex
100
AcDb2dVertex
 10
20.79516128269803
 20
17.33433665347124
 30
0.0
  0
VERTEX
  5
160
330
D3
100
AcDbEntity
  8
CALQUE_1
 62
     7
100
AcDbVertex
100
AcDb2dVertex
 10
20.79516128269803
 20
17.93433487899785
 30
0.0
  0
VERTEX
  5
161
330
D3
100
AcDbEntity
  8
CALQUE_1
 62
     7
100
AcDbVertex
100
AcDb2dVertex
 10
21.09516039546133
 20
17.93433487899785
 30
0.0
  0
VERTEX
  5
162
330
D3
100
AcDbEntity
  8
CALQUE_1
 62
     7
100
AcDbVertex
100
AcDb2dVertex
 10
21.09516039546133
 20
18.53433310452446
 30
0.0
  0
VERTEX
  5
163
330
D3
100
AcDbEntity
  8
CALQUE_1
 62
     7
100
AcDbVertex
100
AcDb2dVertex
 10
20.79516128269803
 20
18.53433310452446
 30
0.0
  0
VERTEX
  5
164
330
D3
100
AcDbEntity
  8
CALQUE_1
 62
     7
100
AcDbVertex
100
AcDb2dVertex
 10
20.79516128269803
 20
19.13433133005107
 30
0.0
  0
VERTEX
  5
165
330
D3
100
AcDbEntity
  8
CALQUE_1
 62
     7
100
AcDbVertex
100
AcDb2dVertex
 10
21.09516039546133
 20
19.13433133005107
 30
0.0
  0
VERTEX
  5
166
330
D3
100
AcDbEntity
  8
CALQUE_1
 62
     7
100
AcDbVertex
100
AcDb2dVertex
 10
21.09516039546133
 20
34.83433083263407
 30
0.0
  0
VERTEX
  5
167
330
D3
100
AcDbEntity
  8
CALQUE_1
 62
     7
100
AcDbVertex
100
AcDb2dVertex
 10
20.09515186925779
 20
34.83433083263407
 30
0.0
  0
VERTEX
  5
168
330
D3
100
AcDbEntity
  8
CALQUE_1
 62
     7
100
AcDbVertex
100
AcDb2dVertex
 10
20.09515186925779
 20
34.53433171987076
 30
0.0
  0
SEQEND
  5
169
330
D3
100
AcDbEntity
  8
CALQUE_1
  0
POLYLINE
  5
16A
330
1F
100
AcDbEntity
  8
CALQUE_1
 62
     7
100
AcDb2dPolyline
 66
     1
 10
0.0
 20
0.0
 30
0.0
  0
VERTEX
  5
16B
330
16A
100
AcDbEntity
  8
CALQUE_1
 62
     7
100
AcDbVertex
100
AcDb2dVertex
 10
25.61264818352133
 20
18.53433310452446
 30
0.0
  0
VERTEX
  5
16C
330
16A
100
AcDbEntity
  8
CALQUE_1
 62
     7
100
AcDbVertex
100
AcDb2dVertex
 10
25.61264818352133
 20
19.13433133005107
 30
0.0
  0
VERTEX
  5
16D
330
16A
100
AcDbEntity
  8
CALQUE_1
 62
     7
100
AcDbVertex
100
AcDb2dVertex
 10
20.81266237930847
 20
19.13433133005107
 30
0.0
  0
VERTEX
  5
16E
330
16A
100
AcDbEntity
  8
CALQUE_1
 62
     7
100
AcDbVertex
100
AcDb2dVertex
 10
20.81266237930847
 20
18.53433310452446
 30
0.0
  0
VERTEX
  5
16F
330
16A
100
AcDbEntity
  8
CALQUE_1
 62
     7
100
AcDbVertex
100
AcDb2dVertex
 10
21.11266149207177
 20
18.53433310452446
 30
0.0
  0
VERTEX
  5
170
330
16A
100
AcDbEntity
  8
CALQUE_1
 62
     7
100
AcDbVertex
100
AcDb2dVertex
 10
21.11266149207177
 20
17.93433487899785
 30
0.0
  0
VERTEX
  5
171
330
16A
100
AcDbEntity
  8
CALQUE_1
 62
     7
100
AcDbVertex
100
AcDb2dVertex
 10
20.81266237930847
 20
17.93433487899785
 30
0.0
  0
VERTEX
  5
172
330
16A
100
AcDbEntity
  8
CALQUE_1
 62
     7
100
AcDbVertex
100
AcDb2dVertex
 10
20.81266237930847
 20
17.33433665347124
 30
0.0
  0
VERTEX
  5
173
330
16A
100
AcDbEntity
  8
CALQUE_1
 62
     7
100
AcDbVertex
100
AcDb2dVertex
 10
21.11266149207177
 20
17.33433665347124
 30
0.0
  0
VERTEX
  5
174
330
16A
100
AcDbEntity
  8
CALQUE_1
 62
     7
100
AcDbVertex
100
AcDb2dVertex
 10
21.11266149207177
 20
16.73430397696706
 30
0.0
  0
VERTEX
  5
175
330
16A
100
AcDbEntity
  8
CALQUE_1
 62
     7
100
AcDbVertex
100
AcDb2dVertex
 10
20.81266237930847
 20
16.73430397696706
 30
0.0
  0
VERTEX
  5
176
330
16A
100
AcDbEntity
  8
CALQUE_1
 62
     7
100
AcDbVertex
100
AcDb2dVertex
 10
20.81266237930847
 20
15.78431827020912
 30
0.0
  0
VERTEX
  5
177
330
16A
100
AcDbEntity
  8
CALQUE_1
 62
     7
100
AcDbVertex
100
AcDb2dVertex
 10
21.11266149207177
 20
15.78431827020912
 30
0.0
  0
VERTEX
  5
178
330
16A
100
AcDbEntity
  8
CALQUE_1
 62
     7
100
AcDbVertex
100
AcDb2dVertex
 10
21.11266149207177
 20
14.83433256345118
 30
0.0
  0
VERTEX
  5
179
330
16A
100
AcDbEntity
  8
CALQUE_1
 62
     7
100
AcDbVertex
100
AcDb2dVertex
 10
21.56266016121673
 20
14.83433256345118
 30
0.0
  0
VERTEX
  5
17A
330
16A
100
AcDbEntity
  8
CALQUE_1
 62
     7
100
AcDbVertex
100
AcDb2dVertex
 10
21.56266016121673
 20
15.13433167621449
 30
0.0
  0
VERTEX
  5
17B
330
16A
100
AcDbEntity
  8
CALQUE_1
 62
     7
100
AcDbVertex
100
AcDb2dVertex
 10
22.31265794312499
 20
15.13433167621449
 30
0.0
  0
VERTEX
  5
17C
330
16A
100
AcDbEntity
  8
CALQUE_1
 62
     7
100
AcDbVertex
100
AcDb2dVertex
 10
22.31265794312499
 20
14.83433256345118
 30
0.0
  0
VERTEX
  5
17D
330
16A
100
AcDbEntity
  8
CALQUE_1
 62
     7
100
AcDbVertex
100
AcDb2dVertex
 10
22.9126561686516
 20
14.83433256345118
 30
0.0
  0
VERTEX
  5
17E
330
16A
100
AcDbEntity
  8
CALQUE_1
 62
     7
100
AcDbVertex
100
AcDb2dVertex
 10
22.9126561686516
 20
15.13433167621449
 30
0.0
  0
VERTEX
  5
17F
330
16A
100
AcDbEntity
  8
CALQUE_1
 62
     7
100
AcDbVertex
100
AcDb2dVertex
 10
23.51265439417821
 20
15.13433167621449
 30
0.0
  0
VERTEX
  5
180
330
16A
100
AcDbEntity
  8
CALQUE_1
 62
     7
100
AcDbVertex
100
AcDb2dVertex
 10
23.51265439417821
 20
14.83433256345118
 30
0.0
  0
VERTEX
  5
181
330
16A
100
AcDbEntity
  8
CALQUE_1
 62
     7
100
AcDbVertex
100
AcDb2dVertex
 10
24.11265261970481
 20
14.83433256345118
 30
0.0
  0
VERTEX
  5
182
330
16A
100
AcDbEntity
  8
CALQUE_1
 62
     7
100
AcDbVertex
100
AcDb2dVertex
 10
24.11265261970481
 20
15.13433167621449
 30
0.0
  0
VERTEX
  5
183
330
16A
100
AcDbEntity
  8
CALQUE_1
 62
     7
100
AcDbVertex
100
AcDb2dVertex
 10
24.86265040161307
 20
15.13433167621449
 30
0.0
  0
VERTEX
  5
184
330
16A
100
AcDbEntity
  8
CALQUE_1
 62
     7
100
AcDbVertex
100
AcDb2dVertex
 10
24.86265040161307
 20
14.83433256345118
 30
0.0
  0
VERTEX
  5
185
330
16A
100
AcDbEntity
  8
CALQUE_1
 62
     7
100
AcDbVertex
100
AcDb2dVertex
 10
25.31264907075803
 20
14.83433256345118
 30
0.0
  0
VERTEX
  5
186
330
16A
100
AcDbEntity
  8
CALQUE_1
 62
     7
100
AcDbVertex
100
AcDb2dVertex
 10
25.31264907075803
 20
15.78431827020912
 30
0.0
  0
VERTEX
  5
187
330
16A
100
AcDbEntity
  8
CALQUE_1
 62
     7
100
AcDbVertex
100
AcDb2dVertex
 10
25.61264818352133
 20
15.78431827020912
 30
0.0
  0
VERTEX
  5
188
330
16A
100
AcDbEntity
  8
CALQUE_1
 62
     7
100
AcDbVertex
100
AcDb2dVertex
 10
25.61264818352133
 20
16.73430397696706
 30
0.0
  0
VERTEX
  5
189
330
16A
100
AcDbEntity
  8
CALQUE_1
 62
     7
100
AcDbVertex
100
AcDb2dVertex
 10
25.31264907075803
 20
16.73430397696706
 30
0.0
  0
VERTEX
  5
18A
330
16A
100
AcDbEntity
  8
CALQUE_1
 62
     7
100
AcDbVertex
100
AcDb2dVertex
 10
25.31264907075803
 20
17.33433665347124
 30
0.0
  0
VERTEX
  5
18B
330
16A
100
AcDbEntity
  8
CALQUE_1
 62
     7
100
AcDbVertex
100
AcDb2dVertex
 10
25.61264818352133
 20
17.33433665347124
 30
0.0
  0
VERTEX
  5
18C
330
16A
100
AcDbEntity
  8
CALQUE_1
 62
     7
100
AcDbVertex
100
AcDb2dVertex
 10
25.61264818352133
 20
17.93433487899785
 30
0.0
  0
VERTEX
  5
18D
330
16A
100
AcDbEntity
  8
CALQUE_1
 62
     7
100
AcDbVertex
100
AcDb2dVertex
 10
25.31264907075803
 20
17.93433487899785
 30
0.0
  0
VERTEX
  5
18E
330
16A
100
AcDbEntity
  8
CALQUE_1
 62
     7
100
AcDbVertex
100
AcDb2dVertex
 10
25.31264907075803
 20
18.53433310452446
 30
0.0
  0
VERTEX
  5
18F
330
16A
100
AcDbEntity
  8
CALQUE_1
 62
     7
100
AcDbVertex
100
AcDb2dVertex
 10
25.61264818352133
 20
18.53433310452446
 30
0.0
  0
SEQEND
  5
190
330
16A
100
AcDbEntity
  8
CALQUE_1
  0
INSERT
  5
192
330
1F
100
AcDbEntity
  8
CALQUE_1
100
AcDbBlockReference
  2
BLOCK_2
 10
0.0
 20
0.0
 30
0.0
  0
INSERT
  5
22D
330
1F
100
AcDbEntity
  8
CALQUE_1
100
AcDbBlockReference
  2
BLOCK_3
 10
0.0
 20
0.0
 30
0.0
  0
INSERT
  5
298
330
1F
100
AcDbEntity
  8
CALQUE_1
100
AcDbBlockReference
  2
BLOCK_4
 10
0.0
 20
0.0
 30
0.0
  0
ENDSEC
  0
SECTION
  2
OBJECTS
  0
DICTIONARY
  5
C
330
0
100
AcDbDictionary
  3
ACAD_GROUP
350
D
  3
ACAD_LAYOUT
350
1A
  3
ACAD_MLINESTYLE
350
17
  3
ACAD_PLOTSETTINGS
350
19
  3
ACAD_TABLESTYLE
350
31A
  3
ACAD_VISUALSTYLE
350
2A
  3
ACDBHEADERROUNDTRIPXREC
350
2FA
  0
DICTIONARY
  5
D
102
{ACAD_REACTORS
330
C
102
}
330
C
100
AcDbDictionary
  0
DICTIONARY
  5
1A
102
{ACAD_REACTORS
330
C
102
}
330
C
100
AcDbDictionary
  0
DICTIONARY
  5
17
102
{ACAD_REACTORS
330
C
102
}
330
C
100
AcDbDictionary
  3
STANDARD
350
18
  0
DICTIONARY
  5
19
102
{ACAD_REACTORS
330
C
102
}
330
C
100
AcDbDictionary
  0
DICTIONARY
  5
31A
102
{ACAD_REACTORS
330
C
102
}
330
C
100
AcDbDictionary
  0
DICTIONARY
  5
2A
102
{ACAD_REACTORS
330
C
102
}
330
C
100
AcDbDictionary
  3
2DWIREFRAME
350
2F
  3
3DWIREFRAME
350
30
  3
3D_HIDDEN
350
31
  3
BASIC
350
32
  3
BRIGHTEN
350
36
  3
COLORCHANGE
350
3A
  3
CONCEPTUAL
350
34
  3
DIM
350
35
  3
FACEPATTERN
350
39
  3
FLAT
350
2B
  3
FLATWITHEDGES
350
2C
  3
GOURAUD
350
2D
  3
GOURAUDWITHEDGES
350
2E
  3
LINEPATTERN
350
38
  3
REALISTIC
350
33
  3
THICKEN
350
37
  0
DICTIONARY
  5
2FA
102
{ACAD_REACTORS
330
C
102
}
330
C
100
AcDbDictionary
  3
CEPSNTYPE
350
303
  3
DIMSTYLEDATA
350
319
  3
FINGERPRINTGUID
350
304
  3
HYPERLINKBASE
350
2FD
  3
INSUNITS
350
302
  3
LAYOUTDICT
350
2FF
  3
LWETCUNION
350
301
  3
PLOTSETDICT
350
300
  3
PSVPSCALE
350
306
  3
PUCSBASE
350
309
  3
PUCSORGBACK
350
30F
  3
PUCSORGBOTTOM
350
30B
  3
PUCSORGFRONT
350
30E
  3
PUCSORGLEFT
350
30C
  3
PUCSORGRIGHT
350
30D
  3
PUCSORGTOP
350
30A
  3
PUCSORTHOREF
350
307
  3
PUCSORTHOVIEW
350
308
  3
STYLESHEET
350
2FE
  3
TSTACKALIGN
350
2FB
  3
TSTACKSIZE
350
2FC
  3
UCSBASE
350
312
  3
UCSORGBACK
350
318
  3
UCSORGBOTTOM
350
314
  3
UCSORGFRONT
350
317
  3
UCSORGLEFT
350
315
  3
UCSORGRIGHT
350
316
  3
UCSORGTOP
350
313
  3
UCSORTHOREF
350
310
  3
UCSORTHOVIEW
350
311
  3
VERSIONGUID
350
305
  0
MLINESTYLE
  5
18
102
{ACAD_REACTORS
330
17
102
}
330
17
100
AcDbMlineStyle
  2
Standard
 70
     0
  3

 62
   256
 51
90.0
 52
90.0
 71
     2
 49
0.5
 62
   256
  6
BYLAYER
 49
-0.5
 62
   256
  6
BYLAYER
  0
VISUALSTYLE
  5
2F
102
{ACAD_REACTORS
330
2A
102
}
330
2A
100
AcDbVisualStyle
  2
2dWireframe
 70
     4
 71
     0
 72
     2
 73
     0
 90
        0
 40
-0.6
 41
-30.0
 62
     5
 63
     7
 74
     1
 91
        4
 64
     7
 65
   257
 75
     1
175
     1
 42
1.0
 92
        0
 66
   257
 43
1.0
 76
     1
 77
     6
 78
     2
 67
     7
 79
     5
170
     0
171
     0
290
     0
174
     0
 93
        1
 44
0.0
173
     0
291
     0
 45
0.0
1001
ACAD
1000
AcDbSavedByObjectVersion
1070
     0
  0
VISUALSTYLE
  5
30
102
{ACAD_REACTORS
330
2A
102
}
330
2A
100
AcDbVisualStyle
  2
3dWireframe
 70
     5
 71
     0
 72
     2
 73
     0
 90
        0
 40
-0.6
 41
-30.0
 62
     5
 63
     7
 74
     1
 91
        4
 64
     7
 65
   257
 75
     1
175
     1
 42
1.0
 92
        0
 66
   257
 43
1.0
 76
     1
 77
     6
 78
     2
 67
     7
 79
     5
170
     0
171
     0
290
     0
174
     0
 93
        1
 44
0.0
173
     0
291
     0
 45
0.0
1001
ACAD
1000
AcDbSavedByObjectVersion
1070
     0
  0
VISUALSTYLE
  5
31
102
{ACAD_REACTORS
330
2A
102
}
330
2A
100
AcDbVisualStyle
  2
3D Hidden
 70
     6
 71
     1
 72
     2
 73
     2
 90
        0
 40
-0.6
 41
-30.0
 62
     5
 63
     7
 74
     2
 91
        2
 64
     7
 65
   257
 75
     2
175
     1
 42
40.0
 92
        0
 66
   257
 43
1.0
 76
     1
 77
     6
 78
     2
 67
     7
 79
     3
170
     0
171
     0
290
     0
174
     0
 93
        1
 44
0.0
173
     0
291
     0
 45
0.0
1001
ACAD
1000
AcDbSavedByObjectVersion
1070
     0
  0
VISUALSTYLE
  5
32
102
{ACAD_REACTORS
330
2A
102
}
330
2A
100
AcDbVisualStyle
  2
Basic
 70
     7
 71
     1
 72
     0
 73
     1
 90
        0
 40
-0.6
 41
-30.0
 62
     5
 63
     7
 74
     0
 91
        4
 64
     7
 65
   257
 75
     1
175
     1
 42
1.0
 92
        8
 66
     7
 43
1.0
 76
     1
 77
     6
 78
     2
 67
     7
 79
     5
170
     0
171
     0
290
     0
174
     0
 93
        1
 44
0.0
173
     0
291
     1
 45
0.0
1001
ACAD
1000
AcDbSavedByObjectVersion
1070
     0
  0
VISUALSTYLE
  5
36
102
{ACAD_REACTORS
330
2A
102
}
330
2A
100
AcDbVisualStyle
  2
Brighten
 70
    12
 71
     2
 72
     2
 73
     0
 90
        0
 40
-0.6
 41
-30.0
 62
     5
 63
     7
 74
     1
 91
        4
 64
     7
 65
   257
 75
     1
175
     1
 42
1.0
 92
        8
 66
     7
 43
1.0
 76
     1
 77
     6
 78
     2
 67
     7
 79
     5
170
     0
171
     0
290
     0
174
     0
 93
        1
 44
50.0
173
     0
291
     1
 45
0.0
1001
ACAD
1000
AcDbSavedByObjectVersion
1070
     0
  0
VISUALSTYLE
  5
3A
102
{ACAD_REACTORS
330
2A
102
}
330
2A
100
AcDbVisualStyle
  2
ColorChange
 70
    16
 71
     2
 72
     2
 73
     3
 90
        0
 40
-0.6
 41
-30.0
 62
     5
 63
     8
 74
     1
 91
        4
 64
     7
 65
   257
 75
     1
175
     1
 42
1.0
 92
        8
 66
     8
 43
1.0
 76
     1
 77
     6
 78
     2
 67
     7
 79
     5
170
     0
171
     0
290
     0
174
     0
 93
        1
 44
0.0
173
     0
291
     1
 45
0.0
1001
ACAD
1000
AcDbSavedByObjectVersion
1070
     0
  0
VISUALSTYLE
  5
34
102
{ACAD_REACTORS
330
2A
102
}
330
2A
100
AcDbVisualStyle
  2
Conceptual
 70
     9
 71
     3
 72
     2
 73
     0
 90
        0
 40
-0.6
 41
-30.0
 62
     5
 63
     7
 74
     2
 91
        2
 64
     7
 65
   257
 75
     1
175
     1
 42
40.0
 92
        8
 66
     7
 43
1.0
 76
     1
 77
     6
 78
     2
 67
     7
 79
     3
170
     0
171
     0
290
     0
174
     0
 93
        1
 44
0.0
173
     0
291
     0
 45
0.0
1001
ACAD
1000
AcDbSavedByObjectVersion
1070
     0
  0
VISUALSTYLE
  5
35
102
{ACAD_REACTORS
330
2A
102
}
330
2A
100
AcDbVisualStyle
  2
Dim
 70
    11
 71
     2
 72
     2
 73
     0
 90
        0
 40
-0.6
 41
-30.0
 62
     5
 63
     7
 74
     1
 91
        4
 64
     7
 65
   257
 75
     1
175
     1
 42
1.0
 92
        8
 66
     7
 43
1.0
 76
     1
 77
     6
 78
     2
 67
     7
 79
     5
170
     0
171
     0
290
     0
174
     0
 93
        1
 44
-50.0
173
     0
291
     1
 45
0.0
1001
ACAD
1000
AcDbSavedByObjectVersion
1070
     0
  0
VISUALSTYLE
  5
39
102
{ACAD_REACTORS
330
2A
102
}
330
2A
100
AcDbVisualStyle
  2
Facepattern
 70
    15
 71
     2
 72
     2
 73
     0
 90
        0
 40
-0.6
 41
-30.0
 62
     5
 63
     7
 74
     1
 91
        4
 64
     7
 65
   257
 75
     1
175
     1
 42
1.0
 92
        8
 66
     7
 43
1.0
 76
     1
 77
     6
 78
     2
 67
     7
 79
     5
170
     0
171
     0
290
     0
174
     0
 93
        1
 44
0.0
173
     0
291
     1
 45
0.0
1001
ACAD
1000
AcDbSavedByObjectVersion
1070
     0
  0
VISUALSTYLE
  5
2B
102
{ACAD_REACTORS
330
2A
102
}
330
2A
100
AcDbVisualStyle
  2
Flat
 70
     0
 71
     2
 72
     1
 73
     1
 90
        2
 40
-0.6
 41
30.0
 62
     5
 63
     7
 74
     0
 91
        4
 64
     7
 65
   257
 75
     1
175
     1
 42
1.0
 92
        8
 66
     7
 43
1.0
 76
     1
 77
     6
 78
     2
 67
     7
 79
     5
170
     0
171
     0
290
     0
174
     0
 93
       13
 44
0.0
173
     0
291
     1
 45
0.0
1001
ACAD
1000
AcDbSavedByObjectVersion
1070
     0
  0
VISUALSTYLE
  5
2C
102
{ACAD_REACTORS
330
2A
102
}
330
2A
100
AcDbVisualStyle
  2
FlatWithEdges
 70
     1
 71
     2
 72
     1
 73
     1
 90
        2
 40
-0.6
 41
30.0
 62
     5
 63
     7
 74
     1
 91
        4
 64
     7
 65
   257
 75
     1
175
     1
 42
1.0
 92
        0
 66
   257
 43
1.0
 76
     1
 77
     6
 78
     2
 67
     7
 79
     5
170
     0
171
     0
290
     0
174
     0
 93
       13
 44
0.0
173
     0
291
     1
 45
0.0
1001
ACAD
1000
AcDbSavedByObjectVersion
1070
     0
  0
VISUALSTYLE
  5
2D
102
{ACAD_REACTORS
330
2A
102
}
330
2A
100
AcDbVisualStyle
  2
Gouraud
 70
     2
 71
     2
 72
     2
 73
     1
 90
        2
 40
-0.6
 41
30.0
 62
     5
 63
     7
 74
     0
 91
        4
 64
     7
 65
   257
 75
     1
175
     1
 42
1.0
 92
        0
 66
     7
 43
1.0
 76
     1
 77
     6
 78
     2
 67
     7
 79
     5
170
     0
171
     0
290
     0
174
     0
 93
       13
 44
0.0
173
     0
291
     1
 45
0.0
1001
ACAD
1000
AcDbSavedByObjectVersion
1070
     0
  0
VISUALSTYLE
  5
2E
102
{ACAD_REACTORS
330
2A
102
}
330
2A
100
AcDbVisualStyle
  2
GouraudWithEdges
 70
     3
 71
     2
 72
     2
 73
     1
 90
        2
 40
-0.6
 41
30.0
 62
     5
 63
     7
 74
     1
 91
        4
 64
     7
 65
   257
 75
     1
175
     1
 42
1.0
 92
        0
 66
   257
 43
1.0
 76
     1
 77
     6
 78
     2
 67
     7
 79
     5
170
     0
171
     0
290
     0
174
     0
 93
       13
 44
0.0
173
     0
291
     1
 45
0.0
1001
ACAD
1000
AcDbSavedByObjectVersion
1070
     0
  0
VISUALSTYLE
  5
38
102
{ACAD_REACTORS
330
2A
102
}
330
2A
100
AcDbVisualStyle
  2
Linepattern
 70
    14
 71
     2
 72
     2
 73
     0
 90
        0
 40
-0.6
 41
-30.0
 62
     5
 63
     7
 74
     1
 91
        4
 64
     7
 65
   257
 75
     7
175
     7
 42
1.0
 92
        8
 66
     7
 43
1.0
 76
     1
 77
     6
 78
     2
 67
     7
 79
     5
170
     0
171
     0
290
     0
174
     0
 93
        1
 44
0.0
173
     0
291
     1
 45
0.0
1001
ACAD
1000
AcDbSavedByObjectVersion
1070
     0
  0
VISUALSTYLE
  5
33
102
{ACAD_REACTORS
330
2A
102
}
330
2A
100
AcDbVisualStyle
  2
Realistic
 70
     8
 71
     2
 72
     2
 73
     0
 90
        0
 40
-0.6
 41
-30.0
 62
     5
 63
     7
 74
     1
 91
        0
 64
     7
 65
   257
 75
     1
175
     1
 42
1.0
 92
        8
 66
     8
 43
1.0
 76
     1
 77
     6
 78
     2
 67
     7
 79
     5
170
     0
171
     0
290
     0
174
     0
 93
       13
 44
0.0
173
     0
291
     0
 45
0.0
1001
ACAD
1000
AcDbSavedByObjectVersion
1070
     0
  0
VISUALSTYLE
  5
37
102
{ACAD_REACTORS
330
2A
102
}
330
2A
100
AcDbVisualStyle
  2
Thicken
 70
    13
 71
     2
 72
     2
 73
     0
 90
        0
 40
-0.6
 41
-30.0
 62
     5
 63
     7
 74
     1
 91
        4
 64
     7
 65
   257
 75
     1
175
     1
 42
1.0
 92
       12
 66
     7
 43
1.0
 76
     1
 77
     6
 78
     2
 67
     7
 79
     5
170
     0
171
     0
290
     0
174
     0
 93
        1
 44
0.0
173
     0
291
     1
 45
0.0
1001
ACAD
1000
AcDbSavedByObjectVersion
1070
     0
  0
XRECORD
  5
303
102
{ACAD_REACTORS
330
2FA
102
}
330
2FA
100
AcDbXrecord
 90
        0
  0
XRECORD
  5
319
102
{ACAD_REACTORS
330
2FA
102
}
330
2FA
100
AcDbXrecord
1000
DSTYLE
1002
{
1070
   340
340
11
1002
}
  0
XRECORD
  5
304
102
{ACAD_REACTORS
330
2FA
102
}
330
2FA
100
AcDbXrecord
  1
{0D63D00C-7117-2F49-B440-ABE269EE2958}
  0
XRECORD
  5
2FD
102
{ACAD_REACTORS
330
2FA
102
}
330
2FA
100
AcDbXrecord
  1

  0
XRECORD
  5
302
102
{ACAD_REACTORS
330
2FA
102
}
330
2FA
100
AcDbXrecord
 90
        1
  0
XRECORD
  5
2FF
102
{ACAD_REACTORS
330
2FA
102
}
330
2FA
100
AcDbXrecord
340
1A
  0
XRECORD
  5
301
102
{ACAD_REACTORS
330
2FA
102
}
330
2FA
100
AcDbXrecord
 90
    10269
  0
XRECORD
  5
300
102
{ACAD_REACTORS
330
2FA
102
}
330
2FA
100
AcDbXrecord
340
19
  0
XRECORD
  5
306
102
{ACAD_REACTORS
330
2FA
102
}
330
2FA
100
AcDbXrecord
 40
0.0
  0
XRECORD
  5
309
102
{ACAD_REACTORS
330
2FA
102
}
330
2FA
100
AcDbXrecord
340
0
  0
XRECORD
  5
30F
102
{ACAD_REACTORS
330
2FA
102
}
330
2FA
100
AcDbXrecord
 10
0.0
 20
0.0
 30
0.0
  0
XRECORD
  5
30B
102
{ACAD_REACTORS
330
2FA
102
}
330
2FA
100
AcDbXrecord
 10
0.0
 20
0.0
 30
0.0
  0
XRECORD
  5
30E
102
{ACAD_REACTORS
330
2FA
102
}
330
2FA
100
AcDbXrecord
 10
0.0
 20
0.0
 30
0.0
  0
XRECORD
  5
30C
102
{ACAD_REACTORS
330
2FA
102
}
330
2FA
100
AcDbXrecord
 10
0.0
 20
0.0
 30
0.0
  0
XRECORD
  5
30D
102
{ACAD_REACTORS
330
2FA
102
}
330
2FA
100
AcDbXrecord
 10
0.0
 20
0.0
 30
0.0
  0
XRECORD
  5
30A
102
{ACAD_REACTORS
330
2FA
102
}
330
2FA
100
AcDbXrecord
 10
0.0
 20
0.0
 30
0.0
  0
XRECORD
  5
307
102
{ACAD_REACTORS
330
2FA
102
}
330
2FA
100
AcDbXrecord
340
0
  0
XRECORD
  5
308
102
{ACAD_REACTORS
330
2FA
102
}
330
2FA
100
AcDbXrecord
 70
     0
  0
XRECORD
  5
2FE
102
{ACAD_REACTORS
330
2FA
102
}
330
2FA
100
AcDbXrecord
  1

  0
XRECORD
  5
2FB
102
{ACAD_REACTORS
330
2FA
102
}
330
2FA
100
AcDbXrecord
 90
        1
  0
XRECORD
  5
2FC
102
{ACAD_REACTORS
330
2FA
102
}
330
2FA
100
AcDbXrecord
 90
       70
  0
XRECORD
  5
312
102
{ACAD_REACTORS
330
2FA
102
}
330
2FA
100
AcDbXrecord
340
0
  0
XRECORD
  5
318
102
{ACAD_REACTORS
330
2FA
102
}
330
2FA
100
AcDbXrecord
 10
0.0
 20
0.0
 30
0.0
  0
XRECORD
  5
314
102
{ACAD_REACTORS
330
2FA
102
}
330
2FA
100
AcDbXrecord
 10
0.0
 20
0.0
 30
0.0
  0
XRECORD
  5
317
102
{ACAD_REACTORS
330
2FA
102
}
330
2FA
100
AcDbXrecord
 10
0.0
 20
0.0
 30
0.0
  0
XRECORD
  5
315
102
{ACAD_REACTORS
330
2FA
102
}
330
2FA
100
AcDbXrecord
 10
0.0
 20
0.0
 30
0.0
  0
XRECORD
  5
316
102
{ACAD_REACTORS
330
2FA
102
}
330
2FA
100
AcDbXrecord
 10
0.0
 20
0.0
 30
0.0
  0
XRECORD
  5
313
102
{ACAD_REACTORS
330
2FA
102
}
330
2FA
100
AcDbXrecord
 10
0.0
 20
0.0
 30
0.0
  0
XRECORD
  5
310
102
{ACAD_REACTORS
330
2FA
102
}
330
2FA
100
AcDbXrecord
340
0
  0
XRECORD
  5
311
102
{ACAD_REACTORS
330
2FA
102
}
330
2FA
100
AcDbXrecord
 70
     0
  0
XRECORD
  5
305
102
{ACAD_REACTORS
330
2FA
102
}
330
2FA
100
AcDbXrecord
  1
{FAEB1C32-E019-11D5-929B-00C0DF256EC4}
  0
ENDSEC
  0
EOF
